» » »

Charlie Puth - We Dont Talk Anymore Tabs

Artists:  A B C D E F G H I J K L M N O P Q R S T U V W X Y Z # 

We Dont Talk Anymore Tabs

(ver. 1) Click to play this song!
Charlie Puth
 Rating:
4.3/5 (21 vote)

 We Dont Talk Anymore  lessons Tabs too difficult? Try these video lessons and learn fast
 
                [Rhythm]

    F                          G                              Am                           
e|--------------------------------------------------------------------------------------------
B|----------------------------------------------------------------1-----1-----1-----1-----1---
G|---2-----2-----2-----2-----2-----4-----4-----4-----4-----4----------------------------------
D|-----3-----3-----3-----3-----5-----5-----5-----5-----5--------2-----2-----2-----2-----2-----
A|-3-----3-----3-----3-----3-----5-----5-----5-----5-----5----0-----0-----0-----0-----0-----2-
E|--------------------------------------------------------------------------------------------

Em
------------------------------|
---0-----0-----0-----0-----0--|
------------------------------|
-2-----2-----2-----2-----2----|
-----2-----2-----2-----2------|
------------------------------|

[Melody]

e|-----0--0--------------0--0--------------0--0--------------------3--0h1p0----|
B|--3--------3--1-----3--------3--1--0--3--------3--1--------0--1------------3-|
G|-----------------2-----------------------------------2--2--------------------|
D|-----------------------------------------------------------------------------|
A|-----------------------------------------------------------------------------|
E|-----------------------------------------------------------------------------|
            
Submit corrections


        We Dont Talk Anymore  lessons Hard to play? Try these video lessons and learn fast We Dont Talk Anymore  lessons
        
↑ Back to top | Tablatures and chords for acoustic guitar and electric guitar, ukulele, drums are parodies/interpretations of the original songs. You may use it for private study, scholarship, research or language learning purposes only