» » »

Charlie Puth - How Long Tabs

Artists:  A B C D E F G H I J K L M N O P Q R S T U V W X Y Z # 

How Long Tabs

(ver. 1) Click to play this song!
Charlie Puth
 Rating:
4.3/5 (28 votes)

 How Long lessons Tabs too difficult? Try these video lessons and learn fast
 
                [Intro]
e|---------------------------------------------------------------------------|
B|---------------------------------------------------------------------------|
G|---------------------------------------------------------------------------|
D|---------------------------------------------------------------------------|
A|-----x-----x-----x---------------------------------------------------------|
E|-3/5-x-5-3-x-3-1-x-1-3-3-3-5--3/5-3--3-1-1-3--1/11\------------------------|

[Verse]
                                                           o           o
e|---------------------------------------------------------------------------|
B|---------------------------------------------------------------------------|
G|-------------------------------------------------------------------------0-|
D|---0h2-2p0------0-0-0----------------------------------------------0-0h2---|
A|-0-----x---0----------3-----2-2/3--x--2-0--0h2-2/3\2p0-x-0--2----3---------|
E|-------x------3---------3-1--------x-------0---------x-x-5-----5-x---3-----|
 
             o
e|---------------------------------------------------------------------------|
B|---------------------------------------------------------------------------|
G|----0h2p0------------------------------------------------------------------|
D|-----------2-------------------0h2-2p0-----0-0-0---------------------------|
A|----x-----------x-----x-x-x--0-----x---0---------3-----2-2/3--x--2-0--0h2--|
E|-3--x-----0h1-1-x-1-0-x-x-x--------x-----3---------3-1--------x-------0----|

               o          o                 o
e|---------------------------------------------------------------------------|
B|---------------------------------------------------------------------------|
G|----------------------------0-----0h2p0------------------------------------|
D|----------------------0-0h2---------------2--------------------------------|
A|-2/3\2p0--x--0--2---3-------------x-------------x--------------------------|
E|-------x--x--5----5-x---3------3--x------0h1-1--x--1-0--1/11\--------------|

[Pre-chorus]
e|----5--------0-----3/5-----3-----1--------0--------------------------0-----|
B|------------------------------------------------2/3-----1----1h3-3-3-------|
G|------------------------------------------------0-------0----0---0---------|
D|----------------2----------------------------0---------------2-------------|
A|----------x-------------x--------------x-------------x----0--x---0-----x---|
E|-1-----1--x--1----------x-----3------3-x--3----------x-------x---------x---|

e|-0h1----0-0---------5-----0----3/5----3---1-----0--------------------------|
B|--------0-0--0h2-------------------------------------2/3-----1-----1h3--3--|
G|--------1-1--0---------------------------------------0-------0-----0----0--|
D|--------2-2--2---------------2---------------------0---------------2-------|
A|--x-----2-x------x------x-----------x---------x-----------x-----0--x----0--|
E|--x-----0-x------x1---1-x-1---------x---3---3-x-3---------x--------x-------|

e|---0---0h1--0-0-0-----------------------------------------------------------|
B|-3----------0-0-0-----------------------------------------------------------|
G|------------1-1-1-----------------------------------------------------------|
D|------------2-2-2-----------------------------------------------------------|
A|-----x--x---2-x-x-----------------------------------------------------------|
E|-----x--x---0-x-x-----------------------------------------------------------|

[Chorus]
          o o  o o  o o
e|---------------------------------------------------------------------------|
B|-------------0-0--1-0-------------------------2/5---------------------1/5--|
G|---0-2--2-2--0-0--2-2-1/2p0------0--2-2-2----------7\-----0---2-2-2-------7|
D|-2------2-2--0-0--3-3--------2-2----2-------------------2-----3------------|
A|--------0-0--------------------x----0------x------------x-----------x------|
E|-------------3-3--1-1----------x-----------x-------3\---x-----1-----x-0----|

             o
e|---------------------------------------------------------------------------|
B|-----------h1--1----0--0-----1--0------------------------2/5---------------|
G|-5p4p2p0---h2--2----0--0-----2--2-1/2p0------0--2-2-2---------7\-----0-----|
D|---------------2----0--0-----3--3--------2-2----2------------------2-------|
A|-x---------0---0-0-----x--x-----x----------x----0------x-----------x-------|
E|-x-------------x----3--x--x--1--x----------x-----------x------3\---x-------|

e|---------------------------------------------------------------------------|
B|----------1/5--------------------------------------------------------------|
G|-2-2-2--------7--5p4p2p0---------------------------------------------------|
D|-3-------------------------------------------------------------------------|
A|--------x--------x---------------------------------------------------------|
E|-1------x-0------x---------------------------------------------------------|

[Post-chorus]
      o                                            o
e|----5----7-8---7-5-----0-----5---5/7--5--0--0----5----7-8---7-5----0--3----|
B|----5----5-----0-------0-----------------0--0----5----5-----0------0-------|
G|---------------0-------0-----------------1--1---------------0------0-------|
D|---------------------------3---3---------2--2------------------------------|
A|--0---0--x-------------x---------x-------2--x--0---0--x------------x-------|
E|---------x-----3----3--x---------x----------x---------x-----3---3--x-------|

e|-1-1-0---------------------------------------------------------------------|
B|-1-1----3------------------------------------------------------------------|
G|-2-2----1------------------------------------------------------------------|
D|-3-3-----------------------------------------------------------------------|
A|-3-x-------x---------------------------------------------------------------|
E|-1-x----0--x---------------------------------------------------------------|

[Verse]
                                                           o           o
e|---------------------------------------------------------------------------|
B|---------------------------------------------------------------------------|
G|-------------------------------------------------------------------------0-|
D|---0h2-2p0------0-0-0----------------------------------------------0-0h2---|
A|-0-----x---0----------3-----2-2/3--x--2-0--0h2-2/3\2p0-x-0--2----3---------|
E|-------x------3---------3-1--------x-------0---------x-x-5-----5-x---3-----|
 
             o
e|---------------------------------------------------------------------------|
B|---------------------------------------------------------2/3----1---0-0----|
G|----0h2p0---------------------------------0----0----------------------0----|
D|-----------2------------------0h2-2--------------------0-------------------|
A|----x-----------x------------0----x---0--------x--------------x---x--------|
E|-3--x-----0h1-1-x-1-0-x-x-x-------x-----3---3--x--3-1---------x---x---0----|

e|---------------------------------0----0----0-------------------------------|
B|-0--3/5-3----1-3--3/5-3-----1-3--3----3----0-------------------------------|
G|-2-------------------------------2----2----1-------------------------------|
D|---------------------------------3----3----2-------------------------------|
A|-x--0-----0--x--------------x---------x-x--2--x-x--------------------------|
E|-x-----------x----3/5-----3-x----1-1--x-x--0--x-x--------------------------|

[Prechorus]
e|----5--------0-----3/5-----3-----1--------0--------------------------0-----|
B|------------------------------------------------2/3-----1----1h3-3-3-------|
G|------------------------------------------------0-------0----0---0---------|
D|----------------2----------------------------0---------------2-------------|
A|----------x-------------x--------------x-------------x----0--x---0-----x---|
E|-1-----1--x--1----------x-----3------3-x--3----------x-------x---------x---|

e|-0h1----0-0---------5-----0----3/5----3---1-----0--------------------------|
B|--------0-0--0h2-------------------------------------2/3-----1-----1h3--3--|
G|--------1-1--0---------------------------------------0-------0-----0----0--|
D|--------2-2--2---------------2---------------------0---------------2-------|
A|--x-----2-x------x------x-----------x---------x-----------x-----0--x----0--|
E|--x-----0-x------x1---1-x-1---------x---3---3-x-3---------x--------x-------|

e|---0---0h1--0-0-0----------------------------------------------------------|
B|-3----------0-0-0----------------------------------------------------------|
G|------------1-1-1----------------------------------------------------------|
D|------------2-2-2----------------------------------------------------------|
A|-----x--x---2-x-x----------------------------------------------------------|
E|-----x--x---0-x-x----------------------------------------------------------|

[Chorus]
          o o  o o  o o
e|---------------------------------------------------------------------------|
B|-------------0-0--1-0-------------------------2/5---------------------1/5--|
G|---0-2--2-2--0-0--2-2-1/2p0------0--2-2-2----------7\-----0---2-2-2-------7|
D|-2------2-2--0-0--3-3--------2-2----2-------------------2-----3------------|
A|--------0-0--------------------x----0------x------------x-----------x------|
E|-------------3-3--1-1----------x-----------x-------3\---x-----1-----x-0----|

             o
e|---------------------------------------------------------------------------|
B|-----------h1--1----0--0-----1--0------------------------2/5---------------|
G|-5p4p2p0---h2--2----0--0-----2--2-1/2p0------0--2-2-2---------7\-----0-----|
D|---------------2----0--0-----3--3--------2-2----2------------------2-------|
A|-x---------0---0-0-----x--x-----x----------x----0------x-----------x-------|
E|-x-------------x----3--x--x--1--x----------x-----------x------3\---x-------|

e|---------------------------------------------------------------------------|
B|----------1/5--------------------------------------------------------------|
G|-2-2-2--------7--5p4p2p0---------------------------------------------------|
D|-3-------------------------------------------------------------------------|
A|--------x--------x---------------------------------------------------------|
E|-1------x-0------x---------------------------------------------------------|

[Post-chorus]  
    o                                            o
e|----5----7-8---7-5-----0-----5---5/7--5--0--0----5----7-8---7-5----0--3----|
B|----5----5-----0-------0-----------------0--0----5----5-----0------0-------|
G|---------------0-------0-----------------1--1---------------0------0-------|
D|---------------------------3---3---------2--2------------------------------|
A|--0---0--x-------------x---------x-------2--x--0---0--x------------x-------|
E|---------x-----3----3--x---------x----------x---------x-----3---3--x-------|

              o                                            o
e|-1-1-0--------5----7-8---7-5-----0-----5---5/7--5--0--0----5----7-8---7-5--|
B|-1-1---3------5----5-----0-------0-----------------0--0----5----5-----0----|
G|-2-2---1-----------------0-------0-----------------1--1---------------0----|
D|-3-3---------------------------------3---3---------2--2--------------------|
A|-3-x-----x--0---0--x-------------x---------x-------2--x--0---0--x----------|
E|-1-x---0-x---------x-----3----3--x---------x----------x---------x-----3---3|

e|-0-3--1-1-0----------------------------------------------------------------|
B|-0----1-1----3-------------------------------------------------------------|
G|-0----2-2----1-------------------------------------------------------------|
D|------3-3------------------------------------------------------------------|
A|-x----3-x-------x--0-------------------------------------------------------|
E|-x----1-x----0--x----------------------------------------------------------|

[Prechorus]
                    o
e|---------------------------------------------------------------------------|
B|------------------------------------------------------------------0h2--2---|
G|---0h2-----0h2-0--------------------------------------------------0h2--2---|
D|-------2-------------3-2---0----------0-0-----0-2--2/3--2p0h2--------------|
A|---------x---------------x---x--3---3------x----------------------0----x---|
E|-1-------x--------3------x---x----5--------x------------0------0-------x---|

e|----5--------0-----3/5-----3-----1--------0--------------------------0-----|
B|------------------------------------------------2/3-----1----1h3-3-3-------|
G|------------------------------------------------0-------0----0---0---------|
D|----------------2----------------------------0---------------2-------------|
A|----------x-------------x--------------x-------------x----0--x---0-----x---|
E|-1-----1--x--1----------x-----3------3-x--3----------x-------x---------x---|

e|-0h1----0-0----------------------------------------------------------------|
B|--------0-0----------------------------------------------------------------|
G|--------1-1----------------------------------------------------------------|
D|--------2-2----------------------------------------------------------------|
A|--x-----2-x-x--------------------------------------------------------------|
E|--x-----0-x-x--------------------------------------------------------------|

[Chorus]
                 o o  o o  o      o
e|-------------------------------------0-0-4-4-------------------------------|
B|-------------0-0--3--1---0-0-0-0-3-3-0-0-0-0-----------2/5-----------------|
G|---0-2--2-2--0-0--2--2---1-1-1-1-1-1-1-1-1-1--h2-2---------7\----0--2-2-2--|
D|-2------2-2--0-0--3--3---2-2-2-2-2-2-2-2-2-2--h2---------------2----3------|
A|--------0-0--------------2-2-2-2-2-2-2-2-2-2--0----0-x---------x----------x|
E|-------------3-3--1--1---x-x-x-x-x-x-x-x-x-x---------x-----3\--x----1-----x|

                   o
e|---------------------------------------------------------------------------|
B|-1/5-------------h1--1----0--0-----1--0------------------------2/5---------|
G|-----7-5p4p2p0---h2--2----0--0-----2--2-1/2p0------0--2-2-2---------7\----0|
D|---------------------2----0--0-----3--3--------2-2----2-----------------2--|
A|-------x---------0---0-0-----x--x-----x----------x----0------x----------x--|
E|-0-----x-------------x----3--x--x--1--x----------x-----------x------3\--x--|

e|---------------------------------------------------------------------------|
B|----------1/5--------------------------------------------------------------|
G|-2-2-2--------7--5p4p2p0---------------------------------------------------|
D|-3-------------------------------------------------------------------------|
A|--------x--------x---------------------------------------------------------|
E|-1------x-0------x---------------------------------------------------------|

[Post-chorus]
      o                                            o
e|----5----7-8---7-5-----0-----5---5/7--5--0--0----5----7-8---7-5----0--3----|
B|----5----5-----0-------0-----------------0--0----5----5-----0------0-------|
G|---------------0-------0-----------------1--1---------------0------0-------|
D|---------------------------3---3---------2--2------------------------------|
A|--0---0--x-------------x---------x-------2--x--0---0--x------------x-------|
E|---------x-----3----3--x---------x----------x---------x-----3---3--x-------|

              o                                            o
e|-1-1-0--------5----7-8---7-5-----0-----5---5/7--5--0--0----5----7-8---7-5--|
B|-1-1---3------5----5-----0-------0-----------------0--0----5----5-----0----|
G|-2-2---1-----------------0-------0-----------------1--1---------------0----|
D|-3-3---------------------------------3---3---------2--2--------------------|
A|-3-x-----x--0---0--x-------------x---------x-------2--x--0---0--x----------|
E|-1-x---0-x---------x-----3----3--x---------x----------x---------x-----3---3|

e|-0-3--1-1-0----------------------------------------------------------------|
B|-0----1-1----3------------h1------------------------------------------------|
G|-0----2-2----1---5p4p2p0--h2------------------------------------------------|
D|------3-3-----------------h2------------------------------------------------|
A|-x----3-x--------x--------x------------------------------------------------|
E|-x----1-x----0---x--------x------------------------------------------------|            
Submit corrections


        How Long lessons Hard to play? Try these video lessons and learn fast How Long lessons
        
↑ Back to top | Tablatures and chords for acoustic guitar and electric guitar, ukulele, drums are parodies/interpretations of the original songs. You may use it for private study, scholarship, research or language learning purposes only