» » »

Charlie Puth - Empty Cups Bass

Artists:  A B C D E F G H I J K L M N O P Q R S T U V W X Y Z # 

Empty Cups Bass

(ver. 1) Click to play this song!
Charlie Puth
 Rating:
4.3/5 (27 votes)

 Empty Cups lessons Tabs too difficult? Try these video lessons and learn fast
 
                [Verse]

G|---------------------------------------------------------------------------|
D|---------------------------------------------------------------------------|
A|-----7-------------7-------------7--------------7--------------------------|
E|-000---999-77--000---999-77--000---999-77---000---999-77-------------------|


[Pre-Chorus]

G|---------------------------------------------------------------------------|
D|---------------------------------------------------------------------------|
A|------4-6-7--------4-6-7---------------------------------------------------|
E|-5-7--------5--5-7-------5-------------------------------------------------|


[Chorus]

G|---------------------p9-------p6---------------------------p9------p6----------|
D|----p7-----p9---------------------------p7------p9-----------------------------|
A|--------------6-/s7------s4-------------------------6-/s7------s4--------------|
E|-s5----/s7------------------------4-/s5----/s7------------------------4-/s5----|

            
Submit corrections


        Empty Cups lessons Hard to play? Try these video lessons and learn fast Empty Cups lessons
        
↑ Back to top | Tablatures and chords for acoustic guitar and electric guitar, ukulele, drums are parodies/interpretations of the original songs. You may use it for private study, scholarship, research or language learning purposes only