Home » C » Charlie Lim »

Charlie Lim - Choices Acoustic Tabs

Artists:  A B C D E F G H I J K L M N O P Q R S T U V W X Y Z # 

Choices Acoustic Tabs

(ver. 1) Click to play this song!
Charlie Lim
[Intro]
 
e|-------------------------------------------------------------|
B|-------------------------------------------------------------|
G|-------12------12------12------------------------------------|
D|---10------10------10------10--10----------------------------|
A|-------------------------------------------------------------|
E|-11--11--11--11--11--11--11--11------------------------------|  x4
_______________________________________________________________________________
 
[Verse 1]
 
e|--------------------------------------------------------------|
B|--------------------------------------------------------------|
G|-------12------12------12------12-----10-----10-----10-----10-|
D|---10------10------10------10------8------8------8------8-----|
A|--------------------------------------------------------------|
E|-11--11--11--11--11--11--11--11--10-10--10-10--10-10--10-10---|
 
Keep your eyes on me darling
 
e|-----------------------------------------------------------------|
B|-----------------------------------------------------------------|
G|-------8-------8-------8-------8-------7-------7-------7-------7-|
D|---6-------6-------6-------6-------5-------5-------5-------5-----|
A|-----------------------------------------------------------------|
E|-8---8---8---8---8---8---8---8---6---6---6---6---6---6---6---6---|
 
I'm not a magic trick
 
e|--------------------------------------------------------------|
B|--------------------------------------------------------------|
G|-------12------12------12------12-----10-----10-----10-----10-|
D|---10------10------10------10------8------8------8------8-----|
A|--------------------------------------------------------------|
E|-11--11--11--11--11--11--11--11--10-10--10-10--10-10--10-10---|
 
I know you need to tread lightly
 
e|-----------------------------------------------------------------|
B|-----------------------------------------------------------------|
G|-------8-------8-------8-------8-------7-------7-------7-------7-|
D|---6-------6-------6-------6-------5-------5-------5-------5-----|
A|-----------------------------------------------------------------|
E|-8---8---8---8---8---8---8---8---6---6---6---6---6---6---6---6---|
 
They're counting our mistakes
__________________________________________________________________________________
 
[Chorus]
 
e|-----------------------------------------------------------------|
B|-----------------------------------------------------------------|
G|-------8-------8-------8--------------8-------8-------8----------|
D|---6-------6-------6-------6---6---6-------6-------6-------6---6-|
A|-----------------------------------------------------------------|
E|-8---8---8---8---8---8---8---8---8---8---8---8---8---8---8---8---|
 
If love is built not found
 
e|-----------------------------------------------------------------|
B|---------------7-------7-----------------------------------------|
G|-------8-------------------8-------------------------------------|
D|---8-------8-------8-----------8---------------------------------|
A|-----------------------------------------------------------------|
E|-8---8---8---8---8---8---8---8-----------------------------------|
 
It all comes back around
 
e|-----------------------------------------------------------------|
B|-------------------------------------------6---------------------|
G|-------8-------8-------8---------------8-------------------7-----|
D|---8-------8-------8-------8---8---8-----------8---8---8-------6-|
A|-----------------------------------------------------------------|
E|-6---6---6---6---6---6---6---6---6---6---6---6---6---6---6---6---|
 
Then you can make a home out of me
 
e|-----------------------------------------------------------------|
B|-----------------------------------------------------------------|
G|-------8-------8-------8--------------8-------8-------8----------|
D|---6-------6-------6-------6---6---6-------6-------6-------6---6-|
A|-----------------------------------------------------------------|
E|-8---8---8---8---8---8---8---8---8---8---8---8---8---8---8---8---|
 
When everything's aligned
 
e|-----------------------------------------------------------------|
B|---------------6-------6-----------------------------------------|
G|-------8-------------------8-------------------------------------|
D|---8-------8-------8-----------8---------------------------------|
A|-----------------------------------------------------------------|
E|-8---8---8---8---8---8---8---8-----------------------------------|
 
I'm choking in denial
                                              (Down strum)
e|-------------------------------------------------1---------------|
B|-------------------------------------------------3---------------|
G|-------4-------4-------4-------4-------4---------4---------------|
D|---3-------3-------3-------3-------4-------4-----4---------------|
A|-------------------------------------------------1---------------|
E|-4---4---4---4---4---4---4---4---4---4---4---4---4---------------|
 
Could we get used to this uncanny symmetry
_________________________________________________________________________________
 
[Bridge]
 
e|-------------------------------------------------------------|
B|-------------------------------------------------------------|
G|-------12------12------12------------------------------------|
D|---10------10------10------10--10----------------------------|
A|-------------------------------------------------------------|
E|-11--11--11--11--11--11--11--11------------------------------|  x4
_________________________________________________________________________________
 
[Verse 2]
 
e|--------------------------------------------------------------|
B|--------------------------------------------------------------|
G|-------12------12------12------12-----10-----10-----10-----10-|
D|---10------10------10------10------8------8------8------8-----|
A|--------------------------------------------------------------|
E|-11--11--11--11--11--11--11--11--10-10--10-10--10-10--10-10---|
 
I can take complication
 
e|-----------------------------------------------------------------|
B|-----------------------------------------------------------------|
G|-------8-------8-------8-------8-------7-------7-------7-------7-|
D|---6-------6-------6-------6-------5-------5-------5-------5-----|
A|-----------------------------------------------------------------|
E|-8---8---8---8---8---8---8---8---6---6---6---6---6---6---6---6---|
 
If I can comprehend
 
e|--------------------------------------------------------------|
B|--------------------------------------------------------------|
G|-------12------12------12------12-----10-----10-----10-----10-|
D|---10------10------10------10------8------8------8------8-----|
A|--------------------------------------------------------------|
E|-11--11--11--11--11--11--11--11--10-10--10-10--10-10--10-10---|
 
But I can't deal with ignorance
 
e|-----------------------------------------------------------------|
B|-----------------------------------------------------------------|
G|-------8-------8-------8-------8-------7-------7-------7-------7-|
D|---6-------6-------6-------6-------5-------5-------5-------5-----|
A|-----------------------------------------------------------------|
E|-8---8---8---8---8---8---8---8---6---6---6---6---6---6---6---6---|
 
Even if you think it's bliss
________________________________________________________________________________
 
[Chorus]
 
e|-----------------------------------------------------------------|
B|-----------------------------------------------------------------|
G|-------8-------8-------8--------------8-------8-------8----------|
D|---6-------6-------6-------6---6---6-------6-------6-------6---6-|
A|-----------------------------------------------------------------|
E|-8---8---8---8---8---8---8---8---8---8---8---8---8---8---8---8---|
 
So have we crossed the line
 
e|-----------------------------------------------------------------|
B|---------------7-------7-----------------------------------------|
G|-------8-------------------8-------------------------------------|
D|---8-------8-------8-----------8---------------------------------|
A|-----------------------------------------------------------------|
E|-8---8---8---8---8---8---8---8-----------------------------------|
 
Still gunning for the mile
 
e|-----------------------------------------------------------------|
B|-------------------------------------------6---------------------|
G|-------8-------8-------8---------------8-------------------7-----|
D|---8-------8-------8-------8---8---8-----------8---8---8-------6-|
A|-----------------------------------------------------------------|
E|-6---6---6---6---6---6---6---6---6---6---6---6---6---6---6---6---|
 
I'm terrified that the truth will set you free
 
e|-----------------------------------------------------------------|
B|-----------------------------------------------------------------|
G|-------8-------8-------8--------------8-------8-------8----------|
D|---6-------6-------6-------6---6---6-------6-------6-------6---6-|
A|-----------------------------------------------------------------|
E|-8---8---8---8---8---8---8---8---8---8---8---8---8---8---8---8---|
 
When all your time was spent
 
e|-----------------------------------------------------------------|
B|---------------6-------6-----------------------------------------|
G|-------8-------------------8-------------------------------------|
D|---8-------8-------8-----------8---------------------------------|
A|-----------------------------------------------------------------|
E|-8---8---8---8---8---8---8---8-----------------------------------|
 
Hanging by a thread
                                              (Down strum)
e|-------------------------------------------------1---------------|
B|-------------------------------------------------3---------------|
G|-------4-------4-------4-------4-------4---------4---------------|
D|---3-------3-------3-------3-------4-------4-----4---------------|
A|-------------------------------------------------1---------------|
E|-4---4---4---4---4---4---4---4---4---4---4---4---4---------------|
 
Begging for the bailout in this social currency
__________________________________________________________________________
 
[Outro]
 
e|-------------------------------------------------------------|
B|-------------------------------------------------------------|
G|-------12------12------12------------------------------------|
D|---10------10------10------10--10----------------------------|
A|-------------------------------------------------------------|
E|-11--11--11--11--11--11--11--11------------------------------| x4
 
e|--------------------------------------------------------------|
B|--------------------------------------------------------------|
G|-------12------12------12------12-----10-----10-----10-----10-|
D|---10------10------10------10------8------8------8------8-----|
A|--------------------------------------------------------------|
E|-11--11--11--11--11--11--11--11--10-10--10-10--10-10--10-10---|
 
e|-----------------------------------------------------------------|
B|-----------------------------------------------------------------|
G|-------8-------8-------8-------8-------7-------7-------7-------7-|
D|---6-------6-------6-------6-------5-------5-------5-------5-----|
A|-----------------------------------------------------------------|
E|-8---8---8---8---8---8---8---8---6---6---6---6---6---6---6---6---|
 
e|--------------------------------------------------------------|
B|--------------------------------------------------------------|
G|-------12------12------12------12-----10-----10-----10-----10-|
D|---10------10------10------10------8------8------8------8-----|
A|--------------------------------------------------------------|
E|-11--11--11--11--11--11--11--11--10-10--10-10--10-10--10-10---|
 
e|-----------------------------------------------------------------|
B|-----------------------------------------------------------------|
G|-------8-------8-------8-------8-------7-------7-------7-------7-|
D|---6-------6-------6-------6-------5-------5-------5-------5-----|
A|-----------------------------------------------------------------|
E|-8---8---8---8---8---8---8---8---6---6---6---6---6---6---6---6---|
 
e|--------------------------------------------------------------|
B|--------------------------------------------------------------|
G|-------12------12------12------12-----10-----10-----10-----10-|
D|---10------10------10------10------8------8------8------8-----|
A|--------------------------------------------------------------|
E|-11--11--11--11--11--11--11--11--10-10--10-10--10-10--10-10---|
 
e|-----------------------------------------------------------------|
B|-----------------------------------------------------------------|
G|-------8-------8-------8-------8-------7-------7-------7-------7-|
D|---6-------6-------6-------6-------5-------5-------5-------5-----|
A|-----------------------------------------------------------------|
E|-8---8---8---8---8---8---8---8---6---6---6---6---6---6---6---6---|
 
e|--------------------------------------------------------------|
B|--------------------------------------------------------------|
G|-------12------12------12------12-----10-----10-----10-----10-|
D|---10------10------10------10------8------8------8------8-----|
A|--------------------------------------------------------------|
E|-11--11--11--11--11--11--11--11--10-10--10-10--10-10--10-10---|
 
e|-----------------------------------------------------------------|
B|-----------------------------------------------------------------|
G|-------8-------8-------8-------8-------7-------7-------7-------7-|
D|---6-------6-------6-------6-------5-------5-------5-------5-----|
A|-----------------------------------------------------------------|
E|-8---8---8---8---8---8---8---8---6---6---6---6---6---6---6---6---|
 
End on down strum
            
Submit corrections

↑ Back to top | Tablatures and chords for acoustic guitar and electric guitar, ukulele, drums are parodies/interpretations of the original songs. You may use it for private study, scholarship, research or language learning purposes only