Home » C » Charlie Hall »

Charlie Hall - You Are God Tabs

Artists:  A B C D E F G H I J K L M N O P Q R S T U V W X Y Z # 

You Are God Tabs

(ver. 1) Click to play this song!
Charlie Hall
[Intro]
Guitar 1
E|-------14------12--------------------------|
B|----15----15------15-12---13-12-15---13-12-|
G|-12----------------------------------------|
D|-------------------------------------------|
A|-------------------------------------------|
E|-------------------------------------------|


Guitar 2
E|---------|
B|-----0---|
G|---0---0-|
D|-5-------|
A|---------|
E|---------| Repeat During Intro and Verses


Guitar 1 play [Intro] after verse 1

Guitar 1 play [Intro] during verse 2

Guitar 1 play [Intro] between verse 2 and chorus

Guitar 2 play chords between verse 2 and chorus


[Chorus]
Guitar 1
E|-------14------12--------------------------|
B|----15----15------15-12---13-12-15---13-12-|
G|-12----------------------------------------|
D|-------------------------------------------|
A|-------------------------------------------|
E|-------------------------------------------|


Guitar 2 play chords during chorus


[Bridge]
Guitar 1
E|---------------------------|
B|-------------15-15-15------|
G|-12s11-11s12----------13---|
D|---------------------------|
A|---------------------------|
E|---------------------------| repeat


Guitar 2 (beginning)
E|-----3---------------5-----|
B|-------------0---------0---|
G|---0---0---0---0---0-----0-|
D|-5-------5-------5---------|
A|---------------------------|
E|---------------------------|


E|---------------------------------|
B|-----0-------0-------0-------0---|
G|---0---0---0---0---0---0---0---0-|
D|-5-------5-------5-------5-------|
A|---------------------------------|
E|---------------------------------| repeat


then at the end of bridge


E|-------------------------------|
B|-----0-------0-------3-------3-|
G|---0---0---0---0---0---0---0---|
D|-5-------5-------5-------5-----|
A|-------------------------------|
E|-------------------------------|


[Ending]
Guitar 1
E|----------------|
B|----12-15-12-15-|
G|-12-------------|
D|----------------|
A|----------------|
E|----------------|
            
Submit corrections

↑ Back to top | Tablatures and chords for acoustic guitar and electric guitar, ukulele, drums are parodies/interpretations of the original songs. You may use it for private study, scholarship, research or language learning purposes only