» » »

Charlie Daniels - Simple Man ( Tabs

Artists:  A B C D E F G H I J K L M N O P Q R S T U V W X Y Z # 

Simple Man ( Tabs

(ver. 3) Click to play this song!
Charlie Daniels
 Rating:
4/5 (4 votes)

 Simple Man ( lessons Tabs too difficult? Try these video lessons and learn fast
 
                (Intro)
Charlie Daniels
Simple man (intro part)

This is part of the intro just before the main
song starts.  This is also partly at the end with
some minor changes.  Listen to the sound byte to 
get the time'n.  I wasn't sure about the very end
part of this so please submit any comments about
changes.

All bends are half bends.
-----0-3b-0------0-----------0-3b-0-0---
-0h3b------0h3b---------0h3b------------
-------------------3b-0-----------------
----------------------------------------
----------------------------------------
----------------------------------------

-----0-3b-0------0-----------0-4b-0h3---
-0h3b------0h3b---------0h3b----------5-
-------------------3b-0-----------------
----------------------------------------
----------------------------------------
----------------------------------------
            
Submit corrections


        Simple Man ( lessons Hard to play? Try these video lessons and learn fast Simple Man ( lessons
        
↑ Back to top | Tablatures and chords for acoustic guitar and electric guitar, ukulele, drums are parodies/interpretations of the original songs. You may use it for private study, scholarship, research or language learning purposes only