» » »

Charlie Daniels - Long Haired Country Boy 2 Tabs

Artists:  A B C D E F G H I J K L M N O P Q R S T U V W X Y Z # 

Long Haired Country Boy 2 Tabs

(ver. 3) Click to play this song!
Charlie Daniels
 Rating:
4/5 (4 votes)

 Long Haired Country Boy 2 lessons Tabs too difficult? Try these video lessons and learn fast
 
                Long Haired Country Boy
Originally submitted on 12/7/02 
Revised on 5-5-09


*Drop D Tuning*

Chords:

D = XX0232
G = 5X0003-(drop D style)
A = X02220




e|-----2-----2---------------------|--------------------------|---------------2-----2--------------|
B|-----3-----3---------------------|--------------------------|---------------3-----3--------------|
G|-----2-----2---------------------|--------------------------|---------------2-----2--------------|
D|--0-----0-----------0-----3b--0--|--7--0--5--0--3--0--2--0--|-------0h2--0--------------------0--|
A|---------------0h2-----3---------|--------------------------|--0h2-------------0-----3p0---------|
D|---------------------------------|--------------------------|-----------------------------3b-----|


  D
People say I'm no good, and crazy as a loon.  Cuz I

get stoned in the mornin', I get drunk in the after noon.

  D
Kinda like my ole bluetick hound, I like to lay around 

in the shade.  


Fill:
e|--------------|
B|--------------|
G|--------------|
D|-------0------|
A|--0h3---------|
D|--------------|


 D
And I ain't got no money, but I damn shore got it 

made,

              G
Cuz I ain't askin' nobody for nuthin'.   If I can't 

              D
get it on my own. 


Fill:
e|----------------------|
D|----------------------|
G|----------------------|
D|--------0------3b--0--|
A|--0h2------3----------|
D|----------------------|


 D            A
If you don't like the way I'm livin',  you just 


e|--------------------------------------------|
B|--------------------------------------------|
G|--------------------------------------------|
D|--------------------------------------------|
A|--3----------2-----0------------------------|
D|--------------------------5-----3b----0-----|
  leave this long haired country  boy alone



***or you could play it this way***


e|-------------------------------------------|
B|-------------------------------------------|
G|-------------------------------------------|
D|----0-----------0------------0-------------|
A|--3---3-------2---2------------------------|
D|---------------------------5---5---3b---0--|
   leave  this  long haired country  boy alone



Fill:
e|--2-----2---------------------|--------------------------|---------------2-----2--------------|
B|--3-----3---------------------|--------------------------|---------------3-----3--------------|
G|--2-----2---------------------|--------------------------|---------------2-----2--------------|
D|-----0-----------0-----3b--0--|--7--0--5--0--3--0--2--0--|-------0h2--0--------------------0--|
A|------------0h2-----3---------|--------------------------|--0h2-------------0-----3p0---------|
D|------------------------------|--------------------------|-----------------------------3b-----|



   D
Preacher man talkin' on TV, puttin' down the 

Rock 'N' Roll.  Wants me to send a donation 

cuz he's worried about my soul.  

    D
He said Jesus walked on the water, and I know that 

it's true. 



Fill:
e|--------------|
B|--------------|
G|--------------|
D|-------0------|
A|--0h3---------|
D|--------------|


  D
But sometimes I think that preacher man would like 

to do a little walkin' too.

              G
But I ain't askin' nobody for nuthin'.  If I can't 
       
              D
get it on my own.



Fill:
e|----------------------|
D|----------------------|
G|----------------------|
D|--------0------3b--0--|
A|--0h2------3----------|
D|----------------------|


  D           A
If you don't like the way I'm livin',  you just 


e|--------------------------------------------|
B|--------------------------------------------|
G|--------------------------------------------|
D|--------------------------------------------|
A|--3----------2-----0------------------------|
D|--------------------------5-----3b----0-----|
  leave this long haired country  boy alone




Fill:
e|--2-----2---------------------|--------------------------|---------------2-----2--------------|
B|--3-----3---------------------|--------------------------|---------------3-----3--------------|
G|--2-----2---------------------|--------------------------|---------------2-----2--------------|
D|-----0-----------0-----3b--0--|--7--0--5--0--3--0--2--0--|-------0h2--0--------------------0--|
A|------------0h2-----3---------|--------------------------|--0h2-------------0-----3p0---------|
D|------------------------------|--------------------------|-----------------------------3b-----|



  D
A poor girl wants to marry and a rich girl wants to 

flirt.  A rich man goes to college and a poor man goes to 

work.  


  D
A drunkard wants another drink of wine and a

politician wants a vote.


Fill:
e|--------------|
B|--------------|
G|--------------|
D|-------0------|
A|--0h3---------|
D|--------------|



  D
I don't want much of nuthin' at all but I will take 

another toke. 


              G
But I ain't askin' nobody for nuthin'.  If I can't  

              D
get it on my own.



Fill:
e|----------------------|
D|----------------------|
G|----------------------|
D|--------0------3b--0--|
A|--0h2------3----------|
D|----------------------|



  D           A       
If you don't like the way I'm livin',  you just 



e|--------------------------------------------|
B|--------------------------------------------|
G|--------------------------------------------|
D|--------------------------------------------|
A|--3----------2-----0------------------------|
D|--------------------------5-----3b----0-----|
  leave this long haired country  boy alone



Fill:
e|--2-----2---------------------|--------------------------|---------------2-----2--------------2---|
B|--3-----3---------------------|--------------------------|---------------3-----3--------------3---|
G|--2-----2---------------------|--------------------------|---------------2-----2--------------2---|
D|-----0-----------0-----3b--0--|--7--0--5--0--3--0--2--0--|-------0h2--0--------------------0--0---|
A|------------0h2-----3---------|--------------------------|--0h2-------------0-----3p0---------0---|
D|------------------------------|--------------------------|-----------------------------3b-----0---|







===================================================================



===================================================================



Intro:
e---2---2------------------------------------------|
b---3---3------------------------------------------|
g---2---2------------------------------------------|
d-0-0-0-0-----0---3-0---7-0-5-0-3-0-2-0-----0h2--0-|
a---------0h2---3-----------------------0h2--------|
E--------------------------------------------------|



[ D ]  People say I'm no good, and crazy as a loon.  Cuz I

 get stoned in the mornin', I get drunk in the after noon.


[ D] Kinda like my ole bluetick hound, I like to lay around 

in the shade.  


Fill:
e--------------|
b--------------|
g--------------|
d---------0----|
a---0--2-------|
E--------------|

 
[ D ]  And I ain't got no money, but I damn shore got it 

made,


Cuz I ain't [ G ] askin' nobody for nuthin'.   If I can't 

get it on my [ D ] own. 


Fill:
e----------------------|
b----------------------|
g----------------------|
d--------0------3--0---|
a--0h2------3----------|
E----------------------|


[ D ] If you don't [ A ] like the way I'm livin',  you just 

[ C ] leave this long haired country boy alone.[ D ]


Fill:
e------------------------------------------------|
b------------------------------------------------|
g------------------------------------------------|
d------0---3--0---7-0-5-0-3-0-2-0-------0h2---0--|
a--0h2---3-------------------------0h2-----------|
E------------------------------------------------|



[ D ]  Preacher man talkin' on TV, puttin' down the 

Rock 'N' Roll.  Wants me to send a donation 

cuz he's worried about my soul.  


[ D] He said Jesus walked on the water, and I know that 

it's true. 


Fill:
e--------------|
b--------------|
g--------------|
d---------0----|
a---0--2-------|
E--------------|


[ D ] But sometimes I think that preacher man would like 

to do a little walkin' too.


But I ain't [ G ] askin' nobody for nuthin'.  If I can't 

get it on my [ D ] own.


Fill:
e----------------------|
b----------------------|
g----------------------|
d-------0-----3--0-----|
a--0h2-----3-----------|
E----------------------|


[ D ] If you don't [ A ] like the way I'm livin',  you just 

[ C ] leave this long haired country boy alone.[ D ]


Fill:
e------------------------------------------------|
b------------------------------------------------|
g------------------------------------------------|
d------0---3--0---7-0-5-0-3-0-2-0-------0h2---0--|
a--0h2---3-------------------------0h2-----------|
E------------------------------------------------|



[ D ] A poor girl wants to marry and a rich girl wants to 

flirt.  A rich man goes to college and a poor man goes to 

work.  


[ D ] A drunkard wants another drink of wine and a

politician wants a vote.



Fill:
e---------------|
b---------------|
g---------------|
d---------0-----|
a---0--2--------|
E---------------|



[ D ]  I don't want much of nuthin' at all but I will take 

another toke.


But I ain't [ G ] askin' nobody for nuthin'.  If I can't 

get it on my [ D ] own.



Fill:
e----------------------|
b----------------------|
g----------------------|
d--------0------3--0---|
a--0h2------3----------|
E----------------------|


[ D ] If you don't [ A ] like the way I'm livin',  you just 

[ C ] leave this long haired country boy alone.[ D ]


Outro:
e------------------------------------------------2----|
b------------------------------------------------3----|
g------------------------------------------------2----|
d------0---3--0---7-0-5-0-3-0-2-0-------0h2---0--0----|
a--0h2---3-------------------------0h2----------------|
E-----------------------------------------------------|








 
            
Submit corrections


        Long Haired Country Boy 2 lessons Hard to play? Try these video lessons and learn fast Long Haired Country Boy 2 lessons
        
↑ Back to top | Tablatures and chords for acoustic guitar and electric guitar, ukulele, drums are parodies/interpretations of the original songs. You may use it for private study, scholarship, research or language learning purposes only