» » »

Chapman Tracy - Give Me One Reason Bass

Artists:  A B C D E F G H I J K L M N O P Q R S T U V W X Y Z # 

Give Me One Reason Bass

(ver. 2) Click to play this song!
Chapman Tracy
 Rating:
4/5 (4 votes)

 Give Me One Reason lessons Tabs too difficult? Try these video lessons and learn fast
 
                Key of F#

INTRO: Rest for first 24 bars.

MAIN 12 BARS (repeat 3x)
 
||----------------|---------------|----------------|-----------------|
||----------------|---------------|----------------|-----------3-----|
||----------0-4-3-|-1----4--4-----|----------------|---------4---4-3-|
||-2~--2----------|-------------0-|-2----2---2---0-|-2----2----------|

|-----------------|---------------|----------------|-----------------|
|-----------------|---------------|----------------|-----------------|
|-2---2---2---0-1-|-2---4----4--0-|----------------|-----0----2----3-|
|-----------------|---------------|-1---1----1---0-|-2---------------|

|-----------------|---------------|----------------|-----------------||
|-----------------|---------------|----------------|-----------------||
|-4----4---4--0-1-|-2---2---4-----|----------------|-----------------||
|-----------------|-----------0-1-|-2---2--2--2--0-|-2---2--2---2--0-||

Fourth Time around play this 
12 BAR VARIATION

|----------------|---------------|----------------|-----------------|
|----------------|---------------|-----1--2--1----|-----1--2--1-----|
|----------0-4-3-|-1----4--4-----|----------------|-----------------|
|-2~--2----------|-------------0-|-2--------------|-2---------------|

|-----------------|---------------|---------------|-----------------|
|-----------------|---------------|----1--2--1----|----1--2---------|
|-2---2---2---0-1-|-2---4----4--0-|---------------|----------1-2-3--|
|-----------------|---------------|-2-------------|-2---------------|

|-----------------|---------------|----------------|----------------|
|-----------------|---------------|----------------|----------------|
|-4----4---4--0-1-|-2---2---4-----|----------------|----------------|
|-----------------|-----------0-1-|-2---2--2--2--0-|-2------2-----2-|

Play MAIN 12 BARS again 2X then Outro.

12 BAR OUTRO

|----------------|---------------|----------------|-----------------|
|----------------|---------------|----------------|-----------2-----|
|----------0-4-3-|-1----4--4-----|----------------|---------4---4-3-|
|-2~--2----------|-------------0-|-2----2---2---0-|-2----2----------|

|-----------------|---------------|----------------|----------------|
|-----------------|---------------|----------------|----------------|
|-2---2---2---0-1-|-2---4----4--0-|----------------|-----0---2----3-|
|-----------------|---------------|-1---1----1---0-|-2--------------|

|-----------------|---------------|----------------|----------------|
|-----------------|---------------|----------------|----------------|
|-4----4---4---0--|--2------------|-3-0-2-0-----4--|----------------|
|-----------------|---------------|----------2-----|--0-2~~---------|
            
Submit corrections


        Give Me One Reason lessons Hard to play? Try these video lessons and learn fast Give Me One Reason lessons
        
↑ Back to top | Tablatures and chords for acoustic guitar and electric guitar, ukulele, drums are parodies/interpretations of the original songs. You may use it for private study, scholarship, research or language learning purposes only