Home » C » Chapman Steven Curtis »

Chapman Steven Curtis - For The Ske Of The Call Tabs

Artists:  A B C D E F G H I J K L M N O P Q R S T U V W X Y Z # 

For The Ske Of The Call Tabs

(ver. 1) Click to play this song!
Chapman Steven Curtis
Chords at bottom of tab


Main Riff

e------------------------------------------------------------0------------------
B-----------------------00-000-00-00-00-00-000---0------------------
G-----1-2-/4---4--4--------------------------------------/4--2-1-----------
D---------------------------------------------------------------------2--/4----
A--2----------------------------------------------------------------------------
E--------------------------------------------------------------------------------

Intro
E-------------E--------------------------E

E     E/G#                 Asus2
       Nobody stood and applauded them  so they 
E                                               Asus2                    
knew from the start this road would not lead to fame      All they
Bm/D             C#7                F#m11            Aadd9                      
really knew for sure was Jesus had called to them  He said
Aadd9                     asus/C#                           D                                   
come follow me and they came  with reckless abandon they came

( same as above )

Empty nets lying there at the waters edge
told a story than few could belive and none could explain
How some crazy fishermen aggreed to go where Jesus led
with no thought for what they would gain
For Jesus had called them by name

E      F#m11   G#m B/C#   C#m  B   Aadd9    E/G#
We   will         a -     ban   - don    it   all                  

            F#m11
for the sake of the call

no other reason at all----but the sake of the call




Aadd9   B/A    A    E/G#           Dadd9                  Asus2
Whol      ly       de  voted     to live  and to             die
B                                 E
 for the sake of the call

Verse 3 same as first 2
Chorus

Bridge--listen for timing--( not for the sake of a creed or a cause )
e----------0----------0-----0-------
B--0------0----------0--0-0----0--
G--8------8--8--8--------------8--
D----------9--9--9--------------9---
A------0--------------------------------
E----------------------------------------

e--0--0--0-----------0--0---------------
B--0--0--0--0-------0--0--0-----------
G--6--6--6--4---2--6--8--8------------
D--7--7--7--6---4--7--9--9-------------
A--------------------------------------------
E--------------------------------------------
Play above 2X end on D when he sings “obey”

Last chourus

F#  G#m  A#m  C#/D#  D#m
Bsus2  F#/B  G#m11

Chords
1st and second verses
    
     E  E/G# Asus2       Bm/D    C#7 F#m11        Aadd9   D  Asus2/C#
e--0---------------------2-------4------------------------2-------
B--0---------------------3-------2------------------------3----2-
G--1----4------2---------4-------4-----2-----------6------2----2-
D--2----2------2-----------------3-----4-----------7-----------4-
A--2----0------------------------------4--------------------------
E--0----4------------------------------2--------------------------







1st snd chouruses
    E F#m11  G#m    B/C#  C#m    B Aadd9     E/G# Dadd9
e--0-------------------------------------------------0-------0
B--0--0--------0-----0------0---------0------0-------3
G--1--2--------4-----8------9----8----6------4-------2
D--2--4--------6-----9-----11----9----7------6--------
A------------------------------------------------------------
E-------------------------------------------------------------

Last Chorus
   F#    G#m7   A#m      C#/D#     D#m7     Bsus2   F#/B     G#m11
e---------------------------------------------2------2-----------
B--------------------------2--------7---------2------2---------2
G--3------4------6---------3--------6---------4------3---------4
D--4------4------6---------4--------8---------4------4---------4
A--4------x-------x--------1--------6---------2------2---------x
E--2------4------6---------------------------------------------4

Phew!!!!!!!  This song is one big pain in the butt but when ya get it down its worth 
wile
Play in Christ
            
Submit corrections

↑ Back to top | Tablatures and chords for acoustic guitar and electric guitar, ukulele, drums are parodies/interpretations of the original songs. You may use it for private study, scholarship, research or language learning purposes only