Home » C » Channel 3 »

Channel 3 - Wetspots Bass

Artists:  A B C D E F G H I J K L M N O P Q R S T U V W X Y Z # 

Wetspots Bass

(ver. 1) Click to play this song!
Channel 3
Main             x6
G------------------|
D-----2-2------2---|
A-4-4----2-2-2---2-|
E------------------|

Verse
G------------------------------------------------------------------|
D-----------------2-2-2-2-2-2-2-2----------------------------------|
A-4-4-4-4-4-4-4-4------------------0-0-0-0-0-0-0-0-2-2-2-2-2-2-2-2-|
E------------------------------------------------------------------|

Main             x4
G------------------|
D-----2-2------2---|
A-4-4----2-2-2---2-|
E------------------|

Verse
G------------------------------------------------------------------|
D-----------------2-2-2-2-2-2-2-2----------------------------------|
A-4-4-4-4-4-4-4-4------------------0-0-0-0-0-0-0-0-2-2-2-2-2-2-2-2-|
E------------------------------------------------------------------|

Main             x4
G------------------|
D-----2-2------2---|
A-4-4----2-2-2---2-|
E------------------|

Bridge/Verse
G-----------------------------------------------------------------|
D-----------------2-2-2-2-2-2-2-2-4-4-4-4-4-4-4-4-----------------|
A-4-4-4-4-4-4-4-4---------------------------------4-4-4-4-4-4-4-4-|
E-----------------------------------------------------------------|

G---------------------------------|
D-2-2-2-2-2-2-2-2-6-6-6-6-6-6-6-6-|
A---------------------------------|
E---------------------------------|

Main             x6
G------------------|
D-----2-2------2---|
A-4-4----2-2-2---2-|
E------------------|
            
Submit corrections

↑ Back to top | Tablatures and chords for acoustic guitar and electric guitar, ukulele, drums are parodies/interpretations of the original songs. You may use it for private study, scholarship, research or language learning purposes only