Home » C » Channel 3 »

Channel 3 - Out Of Control Bass

Artists:  A B C D E F G H I J K L M N O P Q R S T U V W X Y Z # 

Out Of Control Bass

(ver. 1) Click to play this song!
Channel 3
Intro                                                       this bar     x4
G-------------------------------------------------------|------------------|
D-------------------------------------------------------|------7-7-----7-7-|
A-6/7-7-7-7-7-7-7-7-6/7-7-7-7-7-7-7-7-6/7-7-7-7-7-7-7-7-|-7-7-------7------|
E-------------------------------------------------------|------------------|

***Rest of song 

                 x4                                                   x4
G------------------|------7-7-----7-7-------7-7--10-7-|-----------------|
D------7-7-----7-7-|-7-7-------7-------7-7------------|------7-7----7-7-|
A-7-7-------7------|----------------------------------|-7-7-------7-----|
E------------------|----------------------------------|-----------------|
                                  x2 
G-----------------|-----------------|
D-9-9-9-9-7-7-7-7-|------7-7----7-7-|
A-----------------|-7-7-------7-----|
E-----------------|-----------------|

play the rest of the song 3 times over and thats it
            
Submit corrections

↑ Back to top | Tablatures and chords for acoustic guitar and electric guitar, ukulele, drums are parodies/interpretations of the original songs. You may use it for private study, scholarship, research or language learning purposes only