Home » C » Channel 3 »

Channel 3 - I Got A Gun Bass

Artists:  A B C D E F G H I J K L M N O P Q R S T U V W X Y Z # 

I Got A Gun Bass

(ver. 1) Click to play this song!
Channel 3
Intro
G-----------------|
D-----------------|
A-6-6-6-6-6-6-6-6-|
E-----------------|

Verse                            x4
G----------------------------------|
D----------------------------------|
A-6-6-6-6-6-6-6-6------------------|
E-----------------4-4-4-4--6-6-6-6-|

Pre-Chorus
G--------------------------------------------------------------------|
D--------------------------------------------------------------------|
A-4-4-4-4-4-4-4-4--6-6-6-6-6-6-6-6--4-4-4-4-4-4-4-4--8-8-8-8-8-8-8-8-|
E--------------------------------------------------------------------|

Chorus                          x2
G---------------------------------|-----------------|
D---------------------------------|-----------------|
A-6-------6-----------------------|-----------------|
E----6-6-----6-6--4-4-4-4-8-8-8-8-|-4-4-4-4-8-8-8-8-|

Verse                            x4
G----------------------------------|
D----------------------------------|
A-6-6-6-6-6-6-6-6------------------|
E-----------------4-4-4-4--6-6-6-6-|

Pre-Chorus
G--------------------------------------------------------------------|
D--------------------------------------------------------------------|
A-4-4-4-4-4-4-4-4--6-6-6-6-6-6-6-6--4-4-4-4-4-4-4-4--8-8-8-8-8-8-8-8-|
E--------------------------------------------------------------------|

Chorus                          x2
G---------------------------------|-----------------|
D---------------------------------|-----------------|
A-6-------6-----------------------|-----------------|
E----6-6-----6-6--4-4-4-4-8-8-8-8-|-4-4-4-4-8-8-8-8-|

Bridge                                      x2
G---------------------------------------------|
D---------------------------------------------|
A---686------686------686------686------686---|
E-6-----6--6-----6--6-----6--6-----6--6-----6-|

Chorus                          x2
G---------------------------------|-----------------|
D---------------------------------|-----------------|
A-6-------6-----------------------|-----------------|
E----6-6-----6-6--4-4-4-4-8-8-8-8-|-4-4-4-4-8-8-8-8-|

Ending x4
G--------|
D--------|
A-6------|
E----6-6-|

****************************************************************************
            
Submit corrections

↑ Back to top | Tablatures and chords for acoustic guitar and electric guitar, ukulele, drums are parodies/interpretations of the original songs. You may use it for private study, scholarship, research or language learning purposes only