Home » C » Channel 3 »

Channel 3 - Double Standard Boys Bass

Artists:  A B C D E F G H I J K L M N O P Q R S T U V W X Y Z # 

Double Standard Boys Bass

(ver. 1) Click to play this song!
Channel 3
Intro
G-----------|-----------|-----------|-----------|
D-----------|-----------|-----------|-----------|
A----0------|----0------|----0------|----0------|
E-1----0----|-1----0----|-1----0----|-1----0----|

Main             
G---------------|---------------|---------------|---------------|
D---------3--2--|---------3--2--|---------3--2--|---------3--2--|
A-0-0-3-3-------|-0-0-3-3-------|-0-0-3-3-------|-0-0-3-3-------|
E---------------|---------------|---------------|---------------|

G---------------|---------------|---------------|---------------|
D---------3--2--|---------3--2--|---------3--2--|---------3--2--|
A-0-0-3-3-------|-0-0-3-3-------|-0-0-3-3-------|-0-0-3-3-------|
E---------------|---------------|---------------|---------------|

G---------------|---------------|---------------|---------------|
D---------3--2--|---------3--2--|---------3--2--|---------3--2--|
A-0-0-3-3-------|-0-0-3-3-------|-0-0-3-3-------|-0-0-3-3-------|
E---------------|---------------|---------------|---------------|

Mid-Variation
G-----------------|-----------------|-----------------|
D---------2-2-2-2-|---------2-2-2-2-|---------2-2-2-2-|
A-0-0-0-0---------|-0-0-0-0---------|-0-0-0-0---------|
E-----------------|-----------------|-----------------|

Main
G---------------|---------------|---------------|---------------|
D---------3--2--|---------3--2--|---------3--2--|---------3--2--|
A-0-0-3-3-------|-0-0-3-3-------|-0-0-3-3-------|-0-0-3-3-------|
E---------------|---------------|---------------|---------------|

Intro
G-----------|-----------|-----------|-----------|
D-----------|-----------|-----------|-----------|
A----1------|----1------|----1------|----1------|
E-2----1----|-2----1----|-2----1----|-2----1----|

Main
G---------------|---------------|---------------|---------------|
D---------3--2--|---------3--2--|---------3--2--|---------3--2--|
A-0-0-3-3-------|-0-0-3-3-------|-0-0-3-3-------|-0-0-3-3-------|
E---------------|---------------|---------------|---------------|

Mid-Variation
G-----------------|-----------------|-----------------|
D---------2-2-2-2-|---------2-2-2-2-|---------2-2-2-2-|
A-0-0-0-0---------|-0-0-0-0---------|-0-0-0-0---------|
E-----------------|-----------------|-----------------|

Main
G---------------|---------------|---------------|---------------|
D---------3--2--|---------3--2--|---------3--2--|---------3--2--|
A-0-0-3-3-------|-0-0-3-3-------|-0-0-3-3-------|-0-0-3-3-------|
E---------------|---------------|---------------|---------------|
            
Submit corrections

↑ Back to top | Tablatures and chords for acoustic guitar and electric guitar, ukulele, drums are parodies/interpretations of the original songs. You may use it for private study, scholarship, research or language learning purposes only