Home » C » Channel 3 »

Channel 3 - Didnt Know Bass

Artists:  A B C D E F G H I J K L M N O P Q R S T U V W X Y Z # 

Didnt Know Bass

(ver. 1) Click to play this song!
Channel 3
Intro                                                 
G-------------------------------------------------------|
D-------------------------------------------------------|
A-------------------------------------------------------|
E-5--5-5-5-5-5--5-5-5-5-5-5--5--5-5-5-5-5--5-5-5-5-5-5--|
                                                                 x6
G------------------------------------------------------------------|
D------------------------------------------------------------------|
A-----------------2-2-2-2-2-2-2-2-4-4-4-4-4-4-4-4-5-5-5-5-5-5-5-5--|
E-5-5-5-5-5-5-5-5--------------------------------------------------|

                                                                  x2
G-------------------------------------------------------------------|
D-------------------------------------------------------------------|
A-----------------2-2-2-2-2-2-2-2-4-4-4-4-4-4-4-4-5---4----2----0---|
E-5-5-5-5-5-5-5-5---------------------------------------------------|

Verse                                                            x5
G------------------------------------------------------------------|
D------------------------------------------------------------------|
A-----------------2-2-2-2-2-2-2-2-4-4-4-4-4-4-4-4-5-5-5-5-5-5-5-5--|
E-5-5-5-5-5-5-5-5--------------------------------------------------|

Chorus                                    x2
G-------------------------------------------|
D----7-7------7-7---------------------------|
A-7------7-7------7-5-5-5-5---4----2----0---|
E-------------------------------------------|

Verse                                                            x4
G------------------------------------------------------------------|
D------------------------------------------------------------------|
A-----------------2-2-2-2-2-2-2-2-4-4-4-4-4-4-4-4-5-5-5-5-5-5-5-5--|
E-5-5-5-5-5-5-5-5--------------------------------------------------|

Chorus                                    x2
G-------------------------------------------|
D----7-7------7-7---------------------------|
A-7------7-7------7-5-5-5-5---4----2----0---|
E-------------------------------------------|
                                                                  x2
G-------------------------------------------------------------------|
D-------------------------------------------------------------------|
A-----------------2-2-2-2-2-2-2-2-4-4-4-4-4-4-4-4-5---4----2----0---|
E-5-5-5-5-5-5-5-5---------------------------------------------------|

Verse                                                            x6
G------------------------------------------------------------------|
D------------------------------------------------------------------|
A-----------------2-2-2-2-2-2-2-2-4-4-4-4-4-4-4-4-5-5-5-5-5-5-5-5--|
E-5-5-5-5-5-5-5-5--------------------------------------------------|

Chorus                                    x2
G-------------------------------------------|
D----7-7------7-7---------------------------|
A-7------7-7------7-5-5-5-5---4----2----0---|
E-------------------------------------------|
                                                                  x4
G-------------------------------------------------------------------|
D-------------------------------------------------------------------|
A-----------------2-2-2-2-2-2-2-2-4-4-4-4-4-4-4-4-5---4----2----0---|
E-5-5-5-5-5-5-5-5---------------------------------------------------|

Bridge (3:19)                                                   x2
G---------------------------------6-6-6-6-6-6-6-6-7-7-7-7-7-7-7-7-|
D-7-7-7-7-7-7-7-7-9-9-9-9-9-9-9-9---------------------------------|
A-----------------------------------------------------------------|
E-----------------------------------------------------------------|

Verse                                                            x4
G------------------------------------------------------------------|
D------------------------------------------------------------------|
A-----------------2-2-2-2-2-2-2-2-4-4-4-4-4-4-4-4-5-5-5-5-5-5-5-5--|
E-5-5-5-5-5-5-5-5--------------------------------------------------|

Chorus                                    x2
G-------------------------------------------|
D----7-7------7-7---------------------------|
A-7------7-7------7-5-5-5-5---4----2----0---|
E-------------------------------------------|
                                                                  x4
G-------------------------------------------------------------------|
D-------------------------------------------------------------------|
A-----------------2-2-2-2-2-2-2-2-4-4-4-4-4-4-4-4-5---4----2----0---|
E-5-5-5-5-5-5-5-5---------------------------------------------------|              x2
G------------------------------------------------------------------|
D------------------------------------------------------------------|
A-----------------2-2-2-2-2-2-2-2-4-4-4-4-4-4-4-4-5-5-5-5-5-5-5-5--|
E-5-5-5-5-5-5-5-5--------------------------------------------------|
                                                                  x1
G-------------------------------------------------------------------|
D-------------------------------------------------------------------|
A-----------------2-2-2-2-2-2-2-2-4-4-4-4-4-4-4-4-5---4----2----0---|
E-5-5-5-5-5-5-5-5---------------------------------------------------|
            
Submit corrections

↑ Back to top | Tablatures and chords for acoustic guitar and electric guitar, ukulele, drums are parodies/interpretations of the original songs. You may use it for private study, scholarship, research or language learning purposes only