Home » C » Chad Vangaalen »

Chad Vangaalen - Clinically Dead Tabs

Artists:  A B C D E F G H I J K L M N O P Q R S T U V W X Y Z # 

Clinically Dead Tabs

(ver. 1) Click to play this song!
Chad Vangaalen
Chad VanGaalen - Clinically Dead

Off the album "Infiniheart"

The song is somewhat out of tune and between 1/4 and 1/2 of a step lower than standard.

Intro & Bridge Riff:
e---------------------------------------------|
B---------------------------5---5-3-----3-----|
G--0-----0-----0----0-----0-----------0-----0-|
D---0-2---0-2---0-2---2-3-----3-----3-----3---|
A---------------------------------------------|
E---------------------------------------------|

Throughout Pre-Chorus:
  F      G  Gsus G F
e---------------------|
B---------------------|
G-2------4---5--4--2--|
D-3------5---5--5--3--| ...etc.
A-3------5---5--5--3--|
E-1------3---3--3--1--|

Thorughout Chorus:
  G         F      G
e---------------------|
B---------------------|
G---------------------|
D---------------------| ...etc.
A-5-----7-5-3----5-5--|
E-3-----3-3-1----1-3--|

F                  A
Clinically he was dead
         G
but the motor inside his head was still working
         F                   A
So they plugged him into a machine
             G
and let his brain dream

                   F                          G
Well people cannot tell you, "There's no way around it"
                F                              G
People cannot tell you, "There's no life without that"

G                        F
And it's another prank phone in the middle of the night
G                        F
And it's a silver-white moon, and it still shines bright
G                        F
And it's another prank phone, why don't you put up a fight?

  And dream on
  dream on, dream on

Clinically I was dead
but the modem inside my head was still working
So they plugged me into a machine
and let my brain dream
            
Submit corrections

↑ Back to top | Tablatures and chords for acoustic guitar and electric guitar, ukulele, drums are parodies/interpretations of the original songs. You may use it for private study, scholarship, research or language learning purposes only