» » »

Celine Dion - Taking Chances Tabs

Artists:  A B C D E F G H I J K L M N O P Q R S T U V W X Y Z # 

Taking Chances Tabs

(ver. 1) Click to play this song!
Celine Dion
 Rating:
4.2/5 (30 votes)

 Taking Chances lessons Tabs too difficult? Try these video lessons and learn fast
 
                [Intro]
    Bm              Em          Bm                   Em
e|------------2---------------|-----------2-----------------------|
B|---------3-----3------0-----|--------3-----3----------0---------|
G|-----4----------4----0------|----4-----------4-------0----------|
D|-------4------------2-------|------4----------------2-----------|
A|---2---------------2--------|--2-------------------2------------|
E|----------------------------|-----------------------------------|


[Verse]
    Bm              Em          Bm                   Em
e|------------2---------------|-----------2-----------------------|
B|---------3-----3------0-----|--------3-----3----------0---------|
G|-----4----------4----0------|----4-----------4-------0----------|
D|-------4------------2-------|------4----------------2-----------|
A|---2---------------2--------|--2-------------------2------------|
E|----------------------------|-----------------------------------|


     G              Em          Bm                  Em
e|----------------------------|-----------2-----------------------|
B|------------0---------------|--------3-----3----------0---------|
G|---------0-----0------0-----|----4-----------4-------0----------|
D|-----0----------0----2------|------4----------------2-----------|
A|-------2------------2-------|--2-------------------2------------|
E|---3---------------0--------|-----------------------------------|


    Bm               Em         Bm                   Em
e|------------2---------------|-----------2-----------------------|
B|---------3-----3------0-----|--------3-----3----------0---------|
G|-----4----------4----0------|----4-----------4-------0----------|
D|-------4------------2-------|------4----------------2-----------|
A|---2---------------2--------|--2-------------------2------------|
E|----------------------------|-----------------------------------|


     G              G/A          G                  G/A
e|----------------------------|-----------------------------------|
B|------------0---------------|-----------0-----------------------|
G|---------0-----0------4-----|--------0-----0-----------4--------|
D|-----0----------0----5------|----0-----------0-------5----------|
A|-------2------------5-------|------2----------------5-----------|
E|---3---------------5--------|--3-------------------5------------|


[Chorus]
    Bm              Em          Bm                   Em
e|------------2---------------|-----------2-----------------------|
B|---------3-----3------0-----|--------3-----3----------0---------|
G|-----4----------4----0------|----4-----------4-------0----------|
D|-------4------------2-------|------4----------------2-----------|
A|---2---------------2--------|--2-------------------2------------|
E|----------------------------|-----------------------------------|


    Bm              Em        G         G/F#   C#dim     Bm     
e|------------2----------------------|----------------------------|
B|---------3-----3------0------------|------------4------3--------|
G|-----4----------4----0---0-------0-|----0------5------4---------|
D|-------4------------2---------0----|---0------4------4----------|
A|---2---------------2------------2--|--2------3------2-----------|
E|----------------------------3------|-2--------------------------|


    Bm               Em         Bm                   Em
e|------------2---------------|-----------2-----------------------|
B|---------3-----3------0-----|--------3-----3----------0---------|
G|-----4----------4----0------|----4-----------4-------0----------|
D|-------4------------2-------|------4----------------2-----------|
A|---2---------------2--------|--2-------------------2------------|
E|----------------------------|-----------------------------------|


[Bridge]
    Bm               Em          Bm                  Em
e|----------------|-------------|----------------|----------------|
B|--------3-----2-|-----0-------|------3------2--|----0-----------|
G|------4--4---4--|----0-2----0-|----4--4----4---|---0-2-----0----|
D|-----4------4---|---2------2--|---4-------4----|--2-------2-----|
A|---2-------2----|--2------2---|-2--------2-----|-2-------2------|
E|----------------|--------0----|----------------|--------0-------|


    Bm                     Em                    Bm                  
e|----------------------|-------------------|---------------------|
B|---------3---------2--|---------0---------|-------3----------2--|
G|-------4---4-----4----|-------0---2----0--|-----4---4------4----|
D|-----4---------4------|-----2---------2---|---4----------4------|
A|---2---------2--------|---2---------2-----|-2----------2--------|
E|----------------------|-----------0-------|---------------------|



    Em                  G          G/A       G       
e|----------------------------|-----------------------------------|
B|--------0-------------0-----|-----------------------------------|
G|------0---2----------0------|--------4---------0----------------|
D|----2---------------2-------|------5---5------0-----------------|
A|--2-------------------------|-----5----------2------------------|
E|------------------3---------|----5----------3--------------------|


    Bm               Em         Bm                   Em
e|------------2-------------|-------------2-----------------------|
B|---------3-----3------0---|----------3-----3----------0---------|
G|-----4----------4----0----|------4-----------4-------0----------|
D|-------4------------2-----|--------4----------------2-----------|
A|---2---------------2------|----2-------------------2------------|
E|--------------------------|-------------------------------------|


    D                G          D                  G
e|---------0-2---------------|---------0-2------------------------|
B|-------3-----3---------0---|-------3------3---------0-----------|
G|-----2---------2------0----|-----2---------2-------0------------|
D|---0-----------------0-----|---0------------------0-------------|
A|---------------------------|------------------------------------|
E|-------------------3-------|--------------------3---------------|


[Chorus]
    D                G           Bm                Em
e|---------0-2---------------|-----------2------------------------|
B|-------3-----3---------0---|---------3---3----------0-----------|
G|-----2---------2------0----|-----4--------4--------0------------|
D|---0-----------------0-----|-------4--------------2-------------|
A|---------------------------|---2-----------------2--------------|
E|-------------------3-------|------------------------------------|

    D                G        Bm            Bm/A      Em
e|---------0-2----------------------------|---------|-------------|
B|-------3-----3---------0-------------3--|------3--|----0--------|
G|-----2---------2------0------------4----|----4----|---0---------|
D|---0-----------------0-----------4------|---4-----|--2----------|
A|-------------------------------2--------|--0------|-2-----------|
E|-------------------3--------------------|---------|-------------|


    D                G           D                G
e|---------0-2---------------|---------0-2------------------------|
B|-------3-----3---------0---|-------3------3---------0-----------|
G|-----2---------2------0----|-----2---------2-------0------------|
D|---0-----------------0-----|---0------------------0-------------|
A|---------------------------|------------------------------------|
E|-------------------3-------|--------------------3---------------|


    Bm              Em          Bm                   Em
e|------------2--------------|------------2-----------------------|
B|---------3-----3------0----|---------3-----3----------0---------|
G|-----4----------4----0-----|-----4-----------4-------0----------|
D|-------4------------2------|-------4----------------2-----------|
A|---2---------------2-------|---2-------------------2------------|
E|---------------------------|-----------------------------------|


[Verse]
    Bm                  Em        Bm                 Em
e|------------2---------------|-----------2-----------------------|
B|---------3-----3---------0--|--------3-----3----------0---------|
G|-----4----------4-------0---|----4-----------4-------0----------|
D|-------4---------------2----|------4----------------2-----------|
A|---2------------------2-----|--2-------------------2------------|
E|----------------------------|-----------------------------------|


    Bm                  Em        Bm                 Em
e|------------2------|--------|-----------2-----------------------|
B|---------3-----3---|-----0--|--------3-----3----------0---------|
G|-----4----------4--|----0---|----4-----------4-------0----------|
D|-------4-----------|---2----|------4----------------2-----------|
A|---2---------------|--2-----|--2-------------------2------------|
E|-------------------|--------|-----------------------------------|
 

Bm                          Em
Don't know much about your life.
Bm                          Em
Don't know much about your world, but
       G                  Em
Don't want to be alone tonight,
          Bm              Em
On this planet they call earth.


Bm                      Em
You don't know about my past, and
Bm                   Em
I don't have a future figured out.
     G                    G/A
And maybe this is going too fast.
     G                    G/A
And maybe it's not meant to last,


[Chorus]
            Bm              Em
what do you say to taking chances,
            Bm             Em
What do you say to jumping off the edge?
Bm            Em                 G
Never knowing if there's solid ground below
    Bm Em          C#dim         Bm
Or hand to hold, or hell to pay,
                 Bm Em
What do you say,
                 Bm Em
What do you say?


Bm                     Em
I just want to start again,
Bm                            Em
And maybe you could show me how to try,
     G                    G/A
And maybe you could take me in,
     G                    G/A
Somewhere underneath your skin?


[Chorus]
            Bm              Em
what do you say to taking chances,
            Bm             Em
What do you say to jumping off the edge?
Bm            Em                 G
Never knowing if there's solid ground below
    Bm Em          C#dim         Bm
Or hand to hold, or hell to pay,
                 Bm Em
What do you say,
                 Bm Em
What do you say?


[Bridge]
       Bm
And I had my heart beaten down,
       Em
But I always come back for more, yeah.
        Bm
There’s nothing like love to pull you up,
             Em
When you’re laying down on the floor there.
    Bm
So talk to me, (talk to me,)
        Em
Like lovers do.
        Bm
Yeah walk with me, (walk with me,)
        Em      G
Like lovers do,
        G/A     G
Like lovers do.


                 Bm Em
What do you say,
                 Bm Em
What do you say?
                 D G
What do you say,
                 D G
What do you say?


Second chorus:
             D              G
what do you say to taking chances,
             Bm            Em
What do you say to jumping off the edge?
D             G                  Bm
Never knowing if there's solid ground below
    Bm/A             Em
Or hand to hold, or hell to pay,
                 D G
What do you say,
                 D G
What do you say?


                 Bm Em
What do you say,
                 Bm Em
What do you say?


Bm                          Em
Don’t know much about your life
Bm                                Em
And I don’t know much about your world.

             Bm
What do you
Em
say,
Bm Em
            
Submit corrections


        Taking Chances lessons Hard to play? Try these video lessons and learn fast Taking Chances lessons
        
↑ Back to top | Tablatures and chords for acoustic guitar and electric guitar, ukulele, drums are parodies/interpretations of the original songs. You may use it for private study, scholarship, research or language learning purposes only