Home » C » cavetown »

cavetown - Feb 14 Bass

Artists:  A B C D E F G H I J K L M N O P Q R S T U V W X Y Z # 

Feb 14 Bass

(ver. 1) Click to play this song!
cavetown
[Verse 1]
15 Bars Rest
 
G|--------|-------------|---------------|--------4----|-----------------|
D|--------|--------5----|--------(5)--5-|-5----5------|-----------------|
A|----5-6-|-7~---7----3-|-3~---5--------|-----------5-|-5----5-5----5-6-|
E|--------|-------------|---------------|-------------|-----------------|
 
G|-------------|---------------|--------4----|----|--------------|------|
D|--------5----|--------(5)--5-|-5----5------|----|--------------|------|
A|-7~---7----3-|-3~---5--------|-----------5-|-5~-|-5---5-5---5/-|-/10~-|
E|-------------|---------------|-------------|----|--------------|------|
 
[Verse 2]
7 bars rest
 
G|-----------------|-------------|---------------|--------4----|-----------------|
D|-----------------|--------5----|--------(5)--5-|-5----5------|-----------------|
A|-5----5-5----5-6-|-7~---7----3-|-3~---5--------|-----------5-|-5----5-5----5-6-|
E|-----------------|-------------|---------------|-------------|-----------------|
 
G|-------------|---------------|--------4----|-----------------|----------------|
D|--------5----|--------(5)--5-|-5----5------|-----------------|----------------|
A|-7~---7----3-|-3~---5--------|-----------5-|-5-5-5-5-5-5-5-5-|-5-5--5-5-5-5-5-|
E|-------------|---------------|-------------|-----------------|----------------|
 
[Chorus]
G|----|------------------|----|-----------------|
D|-5~-|-5-----5-5-5-5-5\-|----|-----------------|
A|----|------------------|-5~-|-5-----5-5-5-5-6-|
E|----|------------------|----|-----------------|
 
G|-----------------|-----------------|----|---------4---4---|
D|-----------------|-----------------|----|-----------------|
A|-7~----------7-5-|-3-----3-3---3-5-|-7~-|-5~--------------|
E|-----------------|-----------------|----|-----------------|
 
G|----|------------------|----|-----------------|
D|-5~-|-5-----5-5-5-5-5\-|----|-----------------|
A|----|------------------|-5~-|-5-----5-5-5-5-6-|
E|----|------------------|----|-----------------|
 
G|-----------------|-----------------|----|-------4---4---|
D|-----------------|-----------------|----|-----5---------|
A|-7~----------7-5-|-3-----3-3---3-5-|-7~-|-5-7-----------|
E|-----------------|-----------------|----|---------------|
 
[Post Chorus + Verse 3]
G|----|---|-----------------|----|----|-----------------|
D|----|---|-5~--------------|----|-5~-|-----------------|
A|----|---|---------------5-|-3~-|----|-5---5-5-5-5-5-5-|
E|-3~-|-~-|-----------------|----|----|-----------------|
 
G|-----------------|----|----|-----------------|
D|-5~--------------|----|-5~-|-----------------|
A|---------------5-|-3~-|----|-5---5-5-5-5-5-6-|
E|-----------------|----|----|-----------------|
 
G|-------------|---------------|--------4----|-----------------|
D|--------5----|--------(5)--5-|-5----5------|-----------------|
A|-7~---7----3-|-3~---5--------|-----------5-|-5----5-5----5-6-|
E|-------------|---------------|-------------|-----------------|
 
G|-------------|---------------|--------4----|-----------------|-----------------|
D|--------5----|--------(5)--5-|-5----5------|-----------------|-----------------|
A|-7~---7----3-|-3~---5--------|-----------5-|-5-5-5-5-5-5-5-5-|-5-5-5-5-5-5-5-5-|
E|-------------|---------------|-------------|-----------------|-----------------|
 
[Bridge]
G|-----------------|----|----|----|
D|-5~--------------|----|-5~-|----|
A|---------------5-|-3~-|----|-5~-|
E|-----------------|----|----|----|
 
G|-----------------|----|----|-----------------|
D|-5~--------------|----|-5~-|-----------------|
A|---------------5-|-3~-|----|-5---5-5-5-5-5-6-|
E|-----------------|----|----|-----------------|
 
G|-------------|---------------|--------4----|-----------------|
D|--------5----|--------(5)--5-|-5----5------|-----------------|
A|-7~---7----3-|-3~---5--------|-----------5-|-5---5-5-5-5-5-6-|
E|-------------|---------------|-------------|-----------------|
 
G|-------------|---------------|--------4----|-----------------|
D|--------5----|--------(5)--5-|-5----5------|-----------------|
A|-7~---7----3-|-3~---5--------|-----------5-|-x-x-x---x-x-5-6-|
E|-------------|---------------|-------------|-----------------|
 
G|-------------|---------------|--------4----|-----------------|
D|--------5----|--------(5)--5-|-5----5------|-----------------|
A|-7~---7----3-|-3~---5--------|-----------5-|-5-5---5-5---5-6-|
E|-------------|---------------|-------------|-----------------|
 
G|-------------|---------------|--------4----|----|---|----|---|
D|--------5----|--------(5)--5-|-5----5------|----|---|----|---|
A|-7~---7----3-|-3~---5--------|-----------5-|-5~-|-~-|-5~-|-~-|
E|-------------|---------------|-------------|----|---|----|---|
 
[Outro]
G|-------------|---------------|----|----|
D|-------------|---------------|-5~-|----|
A|-5-6-7~------|-7-5-3~--------|----|-5~-|
E|-------------|---------------|----|----|
 
G|-------------|---------------|----|----|---|----|---|
D|-------------|---------------|-5~-|----|---|----|---|
A|-5h6-7~------|-7-5-3~--------|----|-5~-|-~-|-5~-|-~-|
E|-------------|---------------|----|----|---|----|---|
 
G|----|----|----|-----------------|----|---|----|---|------|---|
D|-5~-|-4~-|----|-----------------|----|---|----|---|---5~-|-~-|
A|----|----|-7~-|-~-----------7-5-|-3~-|-~-|-5~-|-~-|------|---|
E|----|----|----|-----------------|----|---|----|---|------|---|
            
Submit corrections

↑ Back to top | Tablatures and chords for acoustic guitar and electric guitar, ukulele, drums are parodies/interpretations of the original songs. You may use it for private study, scholarship, research or language learning purposes only