Home » C » cavetown »

cavetown - Dear Live Chords

Artists:  A B C D E F G H I J K L M N O P Q R S T U V W X Y Z # 

Dear Live Chords

(ver. 1) Click to play this song!
cavetown
 Rating:
4.4/5 (5 votes)
                [Chorus 1]
D9
                G                          Am
Everyone's got a thing, a thing they don't like
                        C
A thing that makes them stand in front of the sink
                     D9
With tears in their eyes
                G                        Am
Everyone's got a thing, maybe they won't cry
                      C
Maybe they can't even bear to utter the words
               D9
The doctor prescribed
             Bm   Em            Am             D9
I won't even lie, I'm screaming inside all the time
                B       Em                     D9
It seems like a breeze, it feels like a dream
                   G
But I don't wanna die
 
G    G    Am    C     D9
 
[Verse]
G
She can't stop hurting herself and
Am
He won't look in your eyes
C
Friend, I knew every time you were lying
    D9
And he got himself messed up with the wrong guys
 
 
[Chorus 2]
G                      Am
Everyone's got a thing, a thing they don't like
C
A thing that makes them double-think when
D9
They're standing at the railway crossing lights
Bm         Em
Gotta stop forgetting the fact
Am                               D9
It's not just me in this goddamn world
B                           Em
My brain is a child, I will love him for that
               Am                  D9
But don't lose sight of your baby girl
 
 
[Verse]
Bm                 Em
I don't wanna wake up sometimes
    Am             D9
And I don't wanna sing
B                     Em
And I don't care what happens tonight
   Am                 D9
As long as I feel something
 
 
[Outro]
G    G    Am    C    D9    G    G    Am    C    D9
 
[Solo]
e|-------------12------------------------12-----------------------------------------------------------|
B|--8-10-12-15----15-12-10-12-8--8-10-12----15-12-15-12-10--10-12-10-8---8/10-13-12-10\8---8/10-13-12-|
G|---------------------------------------------------------------------9-----------------9------------|
D|----------------------------------------------------------------------------------------------------|
A|----------------------------------------------------------------------------------------------------|
E|----------------------------------------------------------------------------------------------------|
 
e|----------------------------12----------12----------------------------------------------------------|
B|--10/8---8/10-12-8-10-12-15----15-12-15----10--12-10h12p10-8-8h10p8-----8/10-12-10-10-12-15-12-10\8-|
G|-------7--------------------------------------------------------------9-----------------------------|
D|----------------------------------------------------------------------------------------------------|
A|----------------------------------------------------------------------------------------------------|
E|----------------------------------------------------------------------------------------------------|
 
e|----------------------------------------------------------------------------------------------------|
B|----8/10-12-12-10\8-10-12h13-12-10\8-8-10/12-13-12-10\8---------------------------------------------|
G|--9-----------------------------------------------------9-7-----------------------------------------|
D|----------------------------------------------------------------------------------------------------|
A|----------------------------------------------------------------------------------------------------|
E|----------------------------------------------------------------------------------------------------|
            
Submit corrections

↑ Back to top | Tablatures and chords for acoustic guitar and electric guitar, ukulele, drums are parodies/interpretations of the original songs. You may use it for private study, scholarship, research or language learning purposes only