» » »

Cave In - Big Tabs

Artists:  A B C D E F G H I J K L M N O P Q R S T U V W X Y Z # 

Big Tabs

(ver. 1) Click to play this song!
Cave In
 Rating:
4/5 (4 votes)

 Big lessons Tabs too difficult? Try these video lessons and learn fast
 
                (Riff)
Cave-In
Jupiter




Cave-In usually plays in Eb tuning, but for Big Riff tune the low E down to Bb...

Eb---0---0--------------------|
Bb---0---0--------------------|
Gb---1---1--------------  X 3-|
Db---2---2--------------------|
Ab---2---2--------------------|
Bb---------------0--3--0------|

On the fourth time play this....


Eb---0---0---0--/-0---0---0--------|
Bb---0---0---0--/-0---0---0--------|
Gb---1---1---1--/-2---2---2--------|
Db---2---2---2-/--3---3---3--------|
Ab---2---2---2-/--3---3---3--------|
Bb---------------------------------|

Sustain this chord into the next part of the song...

Eb---0-----|
Bb---0-----|
Gb---2-----|
Db---3-----|
Ab---3-----|
Bb---------|


Breakdown Part...

Eb---0--0--0--------------------------------------|
Bb---3--2--0----------0---------------------------|
Gb--------------2--2------------------------------|
Db--------------------------2--2--0---------------|
Ab--------------------------------------2--2------|
Bb------------------------------------------------|



Eb--0--0--0 --0--0--0-----------------------------------------|
Bb--3--3--3---3--2--0------------0----------------------------|
Gb---------------------------2--2-----------------------------|
Db---------------------------------------2--2--0--------------|
Ab---------------------------------------------------2--2-----|
Bb------------------------------------------------------------|


"..now remember your hero's...."

Eb---0--0--0--0--0----------------------|
Bb---3--3--3--2--0-----0----------------|
Gb---------------------2----------  X 3-|
Db--------------------------------------|
Ab--------------------------------------|
Bb--------------------------------------|

"..you were young again...."

Eb---0--0--0-------0--------0---------------------|
Bb---3--3--3-------2--------0---------------------|
Gb------------------------------------------------|
Db------------------------------------------------|
Ab------------------------------------------------|
Bb------------------------------------------------|



I just started tabbing a lot of Jupiter but there is not a lot of Cave-In tabs out 
there, and there should be...so I just wanted to put this up first, its from memory but I'll
try and finish soon...
            
Submit corrections


        Big lessons Hard to play? Try these video lessons and learn fast Big lessons
        
↑ Back to top | Tablatures and chords for acoustic guitar and electric guitar, ukulele, drums are parodies/interpretations of the original songs. You may use it for private study, scholarship, research or language learning purposes only