» » »

Cattle Decapitation - Manufactured Extinct Tabs

Artists:  A B C D E F G H I J K L M N O P Q R S T U V W X Y Z # 

Manufactured Extinct Tabs

(ver. 1) Click to play this song!
Cattle Decapitation
 Rating:
4.3/5 (22 votes)

 Manufactured Extinct  lessons Tabs too difficult? Try these video lessons and learn fast
 
                Tuning: Eb

Intro riff
e|---------------------------------------------------------------------------|
B|---------------------------------------------------------------------------|
G|---------------------------------------------------------------------------|
D|9--12--11-4--5--9--12--11-16--14-------------------------------------------|
A|7--10--9--2--3--7--10--9--14--12-------------------------------------------|
E|---------------------------------------------------------------------------|

End the riff with this
e|----------------------------------------------------------|
B|----------------------------------------------------------|
G|----------------------------------------------------------|
D|16-16-16-16-15-15-15-15-----------------------------------|
A|14-14-14-14-13-13-13-13-----------------------------------|
E|----------------------------------------------------------|            
Submit corrections


        Manufactured Extinct  lessons Hard to play? Try these video lessons and learn fast Manufactured Extinct  lessons
        
↑ Back to top | Tablatures and chords for acoustic guitar and electric guitar, ukulele, drums are parodies/interpretations of the original songs. You may use it for private study, scholarship, research or language learning purposes only