» » »

Catch 22 - Dear Sergio Tabs

Artists:  A B C D E F G H I J K L M N O P Q R S T U V W X Y Z # 

Dear Sergio Tabs

(ver. 1) Click to play this song!
Catch 22
 Rating:
4.7/5 (12 votes)

 Dear Sergio lessons Tabs too difficult? Try these video lessons and learn fast
 
                
Tuning:regular
intro: Am         F
e|------0---------1-------------|
B|------1---------1-------------|
G|------2---------2-------  X 4-|
D|------2---------3-------------|
A|------0---------3-------------|
E|------X---------1-------------|

Verse:  Am        F        G       C      B(b9)    Am      F     Dm    G
e|-------0--------1--------3-------0-------0--------0------1------1----3---|
B|-------1--------1--------3-------1-------1--------1------1------3----3---|
G|-------2--------2--------0-------0-------0--------2------2------2----0---|
D|-------2--------3--------0-------2-------0--------2------3------0----0---|
A|-------0--------3--------2-------3-------2--------0------3------0----2---|
E|-------X--------1--------3-------X-------X--------X------1------X----3---|

chorus:  C        G        Dm      Am
e|-------0--------3---------1-------0-|
B|-------1--------3---------3-------1-|
G|-------0--------0---------2-------2-|
D|-------2--------0---------0-------2-| X 2
A|-------3--------2---------0-------0-|
E|-------X--------3---------X-------X-|

Then play the verse but end with an E for the instrumental part after the chorus

Verse:

Chorus:

slower upstroke version of the verse:

i did this cuz everyone else's tab sucked...so i got p**sed and tabbed it out myself.
SO HERE YOU GO enjoy...SKA RULES!!!! and long live STREETLIGHT MANIFESTO!!!

i think its right...critiques welcome though
            
Submit corrections


        Dear Sergio lessons Hard to play? Try these video lessons and learn fast Dear Sergio lessons
        
↑ Back to top | Tablatures and chords for acoustic guitar and electric guitar, ukulele, drums are parodies/interpretations of the original songs. You may use it for private study, scholarship, research or language learning purposes only