» » »

Catch 22 - Arm To Arm Tabs

Artists:  A B C D E F G H I J K L M N O P Q R S T U V W X Y Z # 

Arm To Arm Tabs

(ver. 1) Click to play this song!
Catch 22
 Rating:
4/5 (4 votes)

 Arm To Arm lessons Tabs too difficult? Try these video lessons and learn fast
 
                "Arm to Arm" - Catch 22

Intro
e--4-----8-----8---6---4---6--------------------------------------------------
B--4-----8-----9---8---6---8--------------------------------------------------
G--5-----9----10---8---6---8-----------------8--------------------------------
D--6----10----10---8---6---8-----------------8--------------------------------
A--6----10-----8---6---4---6-----------------6--------------------------------
E--4-----8--------------------------------------------------------------------

Verse: 
e-----------------------------------------------------------------------------
B-----------------------------------------------------------------------------
G----------------8----------------10--------------8--------------10-----------
D-6--------------8----------------10--------------8--------------10-----------
A-6--------------6-----------------8--------------6---------------8-----------
E-4---------------------------------------------------------------------------

e-----------------------------------------------------------------------------
B-----------------------------------------------------------------------------
G----8------------6------------8--------------------------------------8-------
D----8------------6------------8--------------6-----------------------8-------
A----6------------4------------6--------------6-----------------------6-------
E---------------------------------------------4-------------------------------

e-----------------------------------------------------------------------------
B-----------------------------------------------------------------------------
G--------10------------8----10---------------8-------------------------6------
D--------10------------8----10---------------8---------8---------------6------
A---------8------------6-----8---------------6---------8---------------4------
E------------------------------------------------------6----------------------

Chorus
e-----------------------------------------------------------------------------
B-----------------------------------------------------------------------------
G--------------------------6-------8-------------------6-------8--------------
D--------------6------3----6-------8-------6------3----6-------8-----6--------
A--------------6------3----4-------6-------6------3----4-------6-----6--------
E--------------4------1--------------------4------1------------------4--------

e-----------------------------------------------------------------------------
B-----------------------------------------------------------------------------
G-----6---------------8------------------------------------6------8--------6--
D-3---6---------------8---------6------3-------------------6------8--------6--
A-3---4---------------6---------6------3-------------------4------6--------4--
E-1-----------------------------4------1--------------------------------------

e-----------------------------------------------------------------------------
B-----------------------------------------------------------------------------
G----8------------------------------------------------------------------------
D----8------------------------------------------------------------------------
A----6------------------------------------------------------------------------
E-----------------------------------------------------------------------------

Bridge
e-----------------------------------------------------------------------------
B-----------------------------------------------------------------------------
G-----------8-----------------------------6-----------------------------------
D-6---------8-------------8---------------6----------------------------6------
A-6---------6-------------8---------------4----------------------------6------
E-4-----------------------6--------------------------------------------4------

e-----------------------------------------------------------------------------
B-----------------------------------------------------------------------------
G--8--------------------------------6-----------------------------------------
D--8-------------8------------------6---------------6-6-6-6-6-6-6-66--3-3-3-3-
A--6-------------8------------------4---------------6-6-6-6-6-6-6-66--3-3-3-3-
E----------------6----------------------------------4-4-4-4-4-4-4-44--1-1-1-1-
                                                   

               
e-----------------------------------------------------------------------------
B-----------------------------------------------------------------------------
G-----------------------------6-6-6-6-6-6-6-6--------------------------------
D-3-3-3-33--8-8-8-8-8-8-8-88--6-6-6-6-6-6-6-6----6-6-6-6-6-6-6-66------3-3-3--
A-3-3-3-33--8-8-8-8-8-8-8-88--4-4-4-4-4-4-4-4----6-6-6-6-6-6-6-66------3-3-3--
E-1-1-1-11--6-6-6-6-6-6-6-66---------------------4-4-4-4-4-4-4-44------1-1-1--

e-----------------------------------------------------------------------------
B-----------------------------------------------------------------------------
G---------------------------------------6------------10p8-6h8-6---------------
D-3-3-3-3-33----8-8-8-8-8-8-8-88--------6-----------------------8--6-6-6-6-6--
A-3-3-3-3-33----8-8-8-8-8-8-8-88--------4--------------------------6-6-6-6-6--
E-1-1-1-1-11----6-6-6-6-6-6-6-66-----------------------------------4-4-4-4-4--
   
e-----------------------------------------------------------------------------
B-----------------------------------------------------------------------------
G---------------------------------------6-6-6-6-6-6-6-6----------------------
D-6-6-6-3-3-3-3-3-3-3-3-8-8-8-8-8-8-8-8-6-6-6-6-6-6-6-6-6-6-6-6-6-6-6-6-3-3-3-
A-6-6-6-3-3-3-3-3-3-3-3-8-8-8-8-8-8-8-8-4-4-4-4-4-4-4-4-6-6-6-6-6-6-6-6-3-3-3-
E-4-4-4-1-1-1-1-1-1-1-1-6-6-6-6-6-6-6-6-----------------4-4-4-4-4-4-4-4-1-1-1-

e-----------------------------------------------------------------------------
B-----------------------------------------------------------------------------
G---------------------------6------6------------------------------------------
D-3-3-3-3-3-8-8-8-8-8-8-8-8-6------6-----6------------------------------------
A-3-3-3-3-3-8-8-8-8-8-8-8-8-4------4-----6------------------------------------
E-1-1-1-1-1-6-6-6-6-6-6-6-6--------------4------------------------------------
            
Submit corrections


        Arm To Arm lessons Hard to play? Try these video lessons and learn fast Arm To Arm lessons
        
↑ Back to top | Tablatures and chords for acoustic guitar and electric guitar, ukulele, drums are parodies/interpretations of the original songs. You may use it for private study, scholarship, research or language learning purposes only