» » »

Casualties - Oi Song Bass

Artists:  A B C D E F G H I J K L M N O P Q R S T U V W X Y Z # 

Oi Song Bass

(ver. 1) Click to play this song!
Casualties
 Rating:
4/5 (4 votes)
    Oi Song lessons Tabs too difficult? Try these video lessons and learn fast
                OI! SONG - The Casualties 



G|---------------------------------------------------------------------------| 
D|---------------------------------------------------------------------------| 
A|--10-10-10-10--------------------------------------------------------------| 
E|---------------------6---8-------------------------------------------------| 

OI! SONG - The Casualties 



G|---------------------------------------------------------------------------| 
D|---------------------------------------------------------------------------| 
A|--10-10-10-10--------------------------------------------------------------| 
E|---------------------6---8-------------------------------------------------|
            
Submit corrections

↑ Back to top | Tablatures and chords for acoustic guitar and electric guitar, ukulele, drums are parodies/interpretations of the original songs. You may use it for private study, scholarship, research or language learning purposes only