» » »

Casualties - Its A Nightmare Tabs

Artists:  A B C D E F G H I J K L M N O P Q R S T U V W X Y Z # 

Its A Nightmare Tabs

(ver. 3) Click to play this song!
Casualties
 Rating:
4/5 (4 votes)

 Its A Nightmare lessons Tabs too difficult? Try these video lessons and learn fast
 
                Record Label: One Sided Dummy
Standard Tuning

Intro 1/ Intro 3/ Verse
E|---------------------------------------|
B|---------------------------------------|
G|-7--5-2---7--10-10---7--5-2-12--10-10--|
D|-7--5-2---7--10-10---7--5-2-12--10-10--|
A|-5--3-0---5--8--8----5--3-0-10--8--8---|
E|---------------------------------------|

Intro 2   (Play this Part really Fast)
E|---------------|
B|---------------|
G|-5\-77--5\-77--|
D|-5\-77--5\-77--|
A|-3\-55--3\-55--|
E|---------------|

Chorus
E|--------------------------------------|
B|--------------------------------------|
G|-2--10-10-7----------2--10-10-12--10--|
D|-2--10-10-7(Hold)----2--10-10-12--10--|
A|-0--8--8--5----------0--8--8--10--8---|
E|--------------------------------------|
Thanks for looking and send corrections if neeeded.
            
Submit corrections


        Its A Nightmare lessons Hard to play? Try these video lessons and learn fast Its A Nightmare lessons
        
↑ Back to top | Tablatures and chords for acoustic guitar and electric guitar, ukulele, drums are parodies/interpretations of the original songs. You may use it for private study, scholarship, research or language learning purposes only