Home » C » Casting Crowns »

Casting Crowns - Who Am I Tabs

Artists:  A B C D E F G H I J K L M N O P Q R S T U V W X Y Z # 

Who Am I Tabs

(ver. 2) Click to play this song!
Casting Crowns
 Rating:
4/5 (4 votes)
                Band: Casting crowns

..ito yung ginamit nilang chords nung kumanta sila sa isang interview..sa una at
verse gumamit sila ng broken chords..yung “B” string itinaas nila ng isang tono..hindi siya
ka accurate…pero yung 3,4,0,3 sa unang tab sure ako jan gawa nalng kayo ng sarili niyong 
nasa cd nila 4th fret yung capo..

Capo 2nd fret
First and Second Verse
   G                 C
e|--------------------------------------------------------|
B|--------3----3-----3--------3-----3----3----------------| (A)(optional)
G|------0---0-0----0--------0---0-0----0------------------|
D|----4----------4--------4----------4--------------------|
A|----------------------3---------------------------------|
E|--3-----------------------------------------------------|
   Em                D
e|-----------------------------3--------------------------|
B|--------3----3-----3--------3-----3----3----------------| (A)(optional)
G|------0---0-0----0--------0---0-0----0------------------|
D|----4----------4--------4----------4--------------------|
A|---2-------------------5--------------------------------|
E|-0------------------------------------------------------|

Ito naman pag di kayo gumamit ng broken chords..sundin nyo lang yung chords na nakalagay
intro G,C,Em,D may mga sundot kada chords pero pwede naring wala…

Capo 2nd fret

G       320033
Em    X22033(Em/D)
C       X32033(C9)
D/F# 200233
D       XX0233 (Dsus)

Verse 1
             G            D/F#                   Em
Who am I,That the Lord of all the earth
             D                            C
Would care to know my name
             D                       C
Would care to feel my hurt
             G                 D/F#                  Em
Who am I, that the Bright and Morning Star
               D                          C
Would choose to light the way
           D                         C
For my ever wandering heart


Refrain:
         C                     D
Not because of who I am
       Em                                D/F#
But because of what You've done
        Em                               D/F#
Not because of what I've done
       C                               D
But because of who You are


Chorus
    G       D               Em
I am a flower quckly fading
        D                          C
Here today and gone tomorrow
    D                         C
A wave tossed in the ocean
   Em             G
A vapor in the wind
G                D                   Em
Still you hear me when I'm calling
              D                         C
Lord you catch me when i'm falling
                  D                     C
And you've told me who i am
              G         (intro)
I am yours, I am yours


2nd verse (Pareho lang ng verse 1)

Who am I, that the eyes that see my sin

Would look on me with love and watch me rise again

Who am i, that the voice that calmed the sea

Would call out through the rain

And calm the strom in me

Outro: G C Em D


Plsssss pakirate po...TIA n_n
 maraming salamat..

Hello sa mga KKB Pilar!!!!!!Sa Tau Kappa Epsilon!!!chaka kay aiko gue....chaka kay
chaka sa mga lolo at lola niya...mahal ko kayong lahat..muaaaaaaaaa..godbless
            
Submit corrections

↑ Back to top | Tablatures and chords for acoustic guitar and electric guitar, ukulele, drums are parodies/interpretations of the original songs. You may use it for private study, scholarship, research or language learning purposes only