Home » C » Casiotone For The Painfully Alone »

Casiotone For The Painfully Alone - The Subway Home Tabs

Artists:  A B C D E F G H I J K L M N O P Q R S T U V W X Y Z # 

The Subway Home Tabs

(ver. 1) Click to play this song!
Casiotone For The Painfully Alone
 Rating:
3.8/5 (25 votes)
                Standard tuning: (E-A-D-G-B-e)


Intro:
e|--------------------|----------------------|
B|--------------------|----------------------|
G|--------------------|----------------------|
D|--------5-----------|----------------------|  (x4)
A|-----7-----7--(x4)--|---------12-----(x4)--|
E|--8-----------------|--10--13----13--------|

Verse: ("It's worse before....")
e|--------------------------------------------------|
B|--------------------------------------------------|
G|--------------------------------------------------|
D|--------5-----------5-----------5-----------5-----|
A|-----7-----7-----7-----7-----7-----7-----7-----7--|
E|--8-----------8-----------8-----------8-----------|
                           
      ("That's what your....")
e|------------------------------------------------------------------|
B|------------------------------------------------------------------|
G|------------------------------------------------------------------|
D|------------------------------------------------------------------|
A|----------12--------------12--------------12--------------12------|
E|--10--13------13--10--13------13--10--13------13--10--13------13--|


Repeat Verse x2


Chorus: ("You said it....")
e|------------------------------------------------------------------|
B|------------------------------------------------------------------|
G|------------------------------------------------------------------|
D|------------------------------------------------------------------|
A|------14------14------14------14------14------14------14------14--|
E|--12------15------12------15------12------15------12------15------|

           ("These sorts of....")
e|------------------------------------------------------------------|
B|------------------------------------------------------------------|
G|------------------------------------------------------------------|
D|------------------------------------------------------------------|
A|------15--12--15------15--12--15------15--12--15------15--12--15--|
E|--13--------------13--------------13--------------13--------------|



Verse: ("You take the subway....")
e|--------------------------------------------------|
B|--------------------------------------------------|
G|--------------------------------------------------|
D|--------5-----------5-----------5-----------5-----|
A|-----7-----7-----7-----7-----7-----7-----7-----7--|
E|--8-----------8-----------8-----------8-----------|


             ("From your job....")
e|------------------------------------------------------------------|
B|------------------------------------------------------------------|
G|------------------------------------------------------------------|
D|------------------------------------------------------------------|
A|----------12--------------12--------------12--------------12------|
E|--10--13------13--10--13------13--10--13------13--10--13------13--|

Repeat Verse x2

At the end of the last verse, there's this fill leading into the chorus
e|----------------------------------|
B|----------------------------------|
G|----------------------------------|
D|----------------------------------|
A|----------12------12------12------|
E|--10--13------13------13------13--|

Final Chorus: ("He said it....")
e|------------------------------------------------------------------|
B|------------------------------------------------------------------|
G|------------------------------------------------------------------|
D|------------------------------------------------------------------|
A|------14------14------14------14------14------14------14------14--|
E|--12------15------12------15------12------15------12------15------|

e|------------------------------------------------------------------|
B|------------------------------------------------------------------|
G|------------------------------------------------------------------|
D|------------------------------------------------------------------|
A|------15--12--15------15--12--15------15--12--15------------------|
E|--13--------------13--------------13--------------12--10----------|


Ending
e|--------------------|-----|
B|--------------------|-----|
G|--------------------|-----|
D|--------5-----------|-----|
A|-----7-----7--(x8)--|-----|
E|--8-----------------|--8--|            
Submit corrections

↑ Back to top | Tablatures and chords for acoustic guitar and electric guitar, ukulele, drums are parodies/interpretations of the original songs. You may use it for private study, scholarship, research or language learning purposes only