» » »

Cash Johnny - I Walk The Line Tabs

Artists:  A B C D E F G H I J K L M N O P Q R S T U V W X Y Z # 

I Walk The Line Tabs

(ver. 1) Click to play this song!
Cash Johnny
 Rating:
4/5 (4 votes)
                would be awesome if someone could finish the song out. This 
song is really fun to play and your grandparnets, who would love to
here it. Any Johnny Cash fans would love to hear you play it. Anyhow,
this is only the intro, listen to the song for the timing.

Intro:
e--------------------------------------------------------------------
b--------------------------------------------------------------------
g--------------------------------------------------------------------
d------------------------------0----0--0-----------------------------
a------------0-----0--0--2--4-----0--------4--2--0----0--0-----------
e---0--2--4----0-----------------------------------0--------4--2--0--

e------------------------------------------------------------------
b------------------------------------------------------------------
g------------------------------------------------------------------
d---------------------1------------------------------------------- and so on....
a---2--2-----------2--2----2--0-------------2-----2-----2----2-----
e---------0--2--0------------------4--2--0-----0-----0-----0-------

Please email for any comments!
That's it, have fun!
            
Submit corrections

↑ Back to top | Tablatures and chords for acoustic guitar and electric guitar, ukulele, drums are parodies/interpretations of the original songs. You may use it for private study, scholarship, research or language learning purposes only