Home » C » Cas Haley »

Cas Haley - Walking On The Moon Tabs

Artists:  A B C D E F G H I J K L M N O P Q R S T U V W X Y Z # 

Walking On The Moon Tabs

(ver. 1) Click to play this song!
Cas Haley
             Walking On the Moon (Acoustic) - Cas Haley


This is the bonus track acoustic version of Walking On the Moon,
 the first song he played on "America's Got Talent" which made
 him pretty damn famous. Go pick up his album because it is really good.

Tuning:Standard

Intro
e|--------------------3---------1-------------3-------------1--------|
B|--------------------4---------3-------------4-------------3--------|
G|--------------------5---------3-----3-3/5---5-----8-7-----3--------|
D|--------------------5---------3-----x-x/x---5-----x-x-----3--------|
A|-------3h5h6-0h1/3--3---------1-----1-1/3---3-----6-5-----1--------|
E|-3h5h6--------------x---------x-------------x-------------x--------|

Verse
e|--3------1---------------------------------------------------------|
B|--4------3---------------------------------------------------------|
G|--5------3---------------------------------------------------------|
D|--5------3---------------------------------------------------------|
A|--3------1---------------------------------------------------------|
E|--x------x---------------------------------------------------------|

Chorus
e|--4---6---6---8----------------------------------------------------|
B|--4---8---6---10---------------------------------------------------|
G|--5---8---7---10---------------------------------------------------|
D|--6---8---8---10---------------------------------------------------|
A|--6---6---8---8----------------------------------------------------|
E|--4---x---6---x----------------------------------------------------|

Just listen to the song to know where to place the octave chords and other
 things. I'm pretty sure the single noted intro part is a little off, 
if you have any corrections. 
Thanks, 
Gracen
            
Submit corrections

↑ Back to top | Tablatures and chords for acoustic guitar and electric guitar, ukulele, drums are parodies/interpretations of the original songs. You may use it for private study, scholarship, research or language learning purposes only