Home » C » Casey Donahew Band »

Casey Donahew Band - White Trash Story Tabs

Artists:  A B C D E F G H I J K L M N O P Q R S T U V W X Y Z # 

White Trash Story Tabs

(ver. 1) Click to play this song!
Casey Donahew Band
White Trash Story
Solo  May not be 100%  add if you want
--------------------------------------------------
--------------------------------------------------
-----------------------------------------------11-
-----7----9-7-9--10b------------------------------
-7-9------------------9h11p9h11p9h11p9h11--11-----
--------------------------------------------------

-------------------------------------------------
------------------12br-12br--12br-12--9----------
-----11-------13-------------------------11------
-------------------------------------------------
-11------11--------------------------------------
-------------------------------------------------

----------------------------------12--------------
--12-------------------------12b-----r12---12-9---
------11----11-9----------9---------------------11
-----------------11--9-11-------------------------
--------------------------------------------------
--------------------------------------------------

----------------------------------------------------
----------------------------------------------------
-11----11-------11b-11-9-----11b-11-9-----11b--11--9
-----------11------------11------------11-----------
----------------------------------------------------
----------------------------------------------------
            
Submit corrections

↑ Back to top | Tablatures and chords for acoustic guitar and electric guitar, ukulele, drums are parodies/interpretations of the original songs. You may use it for private study, scholarship, research or language learning purposes only