Home » C » Casey Donahew Band »

Casey Donahew Band - Stockyards Tabs

Artists:  A B C D E F G H I J K L M N O P Q R S T U V W X Y Z # 

Stockyards Tabs

(ver. 1) Click to play this song!
Casey Donahew Band
This is a work in process.  I play this live and it works
Any suggestion of fixes please feel free


----------------------0-0-0---0-0-0-----------------0-0-0--0-0-0--0-0-0-
-----------------0--3/5-5-5---3-3-3--0-0-0----------5-5-5--3-3-3--0-0-0-
--2b---2b-2b-2br---------------------4-4-4--0-2brbr---------------------
------------------------------------------------------------------------
------------------------------------------------------------------------
------------------------------------------------------------------------
                                                 Solo 1 after 1st Chorus
-----------------------------------------------||-----------------------
-----------------------------3-0---------------||-12---12---12---12---12
--2b-0--2b--0--------------------2-0-----------||-14b--14b--14b--14b--14b
--------------2--------0-2-0---------2-0-------||-----------------------
-------------------0-2-------------------2-0---||-----------------------
-----------------3---------------------------3-||-----------------------
                                               Solo 2 after 2nd chorus
--------------------------------------------||--------------------------
---12---------------------------------------||--------------------------
-------14-12------14--14--14-12-----12------||-----12----------12----12-
--------------14----------------14------14--||-----12---12--14----14----
--------------------------------------------||-10-----------------------
--------------------------------------------||--------------------------


------------------------------------------------------------------------
--15-12----x8-----------------------------------------------------------
--------14------14-12----12------------------14-12----12--------------12
----------------------14----14-12-----12-14--------14----14-12--12-14---
----------------------------------14------------------------------------
------------------------------------------------------------------------

                                    Solo 3 after 3rd chorus
------------15-------17------15---||-------------------------------------
------15-17----x8-----------------||-------------------------------------
--14------------------------------||-2-0--0--4-0---5-0--4-0--5---4-0--5-0
----------------------------------||-------------------------------------
----------------------------------||-------------------------------------
----------------------------------||-------------------------------------

Solo 3 after 3rd chorus                        End
---------------------------------------------||-------------------------
------------------------------------15-------||-------------------------
---4-0--5-0--7--7/9-9-9-9--12--14-------14---||-------------------------
---------------------------------------------||-14--12--9---------------
---------------------------------------------||-----------12--10--12--10
---------------------------------------------||-------------------------
            
Submit corrections

↑ Back to top | Tablatures and chords for acoustic guitar and electric guitar, ukulele, drums are parodies/interpretations of the original songs. You may use it for private study, scholarship, research or language learning purposes only