Home » C » Cascada »

Cascada - Every Time We Touch Bass

Artists:  A B C D E F G H I J K L M N O P Q R S T U V W X Y Z # 

Every Time We Touch Bass

(ver. 1) Click to play this song!
Cascada
I started tabbing this for a friend, but then got a bit carried away.
It's my first bass tab :) I separated the first part of each section
into the first 8 beats so you could get an easier feel for it. It works
perfectly when played along with the recording, and is very fun and simple.
Enjoy!

Intro
0:00-0:28
E|-|1-1-|1-1-|1-1-|1-1-|4-4-|4-4-|4-4-|4-4-|----------------------------------|
A|-|----|----|----|----|----|----|----|----|6-6-6-6-6-6-6-6-4-4-4-4-4-4-4-4---|
D|-|----|----|----|----|----|----|----|----|----------------------------------|
G|-|----|----|----|----|----|----|----|----|----------------------------------|

E|-1-1-1-1-1-1-1-1-4-4-4-4-4-4-4-4----------------------------------|
A|---------------------------------6-6-6-6-6-6-6-6-6-6-6-6-6-6-6-6--|
D|------------------------------------------------------------------|
G|------------------------------------------------------------------|

E|-----------------4-4-4-4-4-4-4-4-----------------1-1-1-1-1-1-1-1--|
A|-4-4-4-4-4-4-4-4-----------------6-6-6-6-6-6-6-6------------------|
D|------------------------------------------------------------------|
G|------------------------------------------------------------------|

E|-----------------4-4-4-4-4-4-4-4----------------------------------|
A|-4-4-4-4-4-4-4-4-----------------6-6-6-6-6-6-6-6-6*---------------|
D|------------------------------------------------------------------|
G|------------------------------------------------------------------|


Chorus (This is best played on the offbeats, but works fine on standard)
0:28-1:38
E|-|----|----|----|----|--1-|--1-|--1-|--1-|------------------1---1---1---1-|
A|-|--4-|--4-|--6-|--6-|----|----|----|----|--4---4---6---6-----------------|
D|-|----|----|----|----|----|----|----|----|--------------------------------|
G|-|----|----|----|----|----|----|----|----|--------------------------------|

E|-----------4---4-----------1---1---4---4---4---4------------------|
A|---4---4-----------6---6---------------------------6---6---6---6--|
D|------------------------------------------------------------------|
G|------------------------------------------------------------------|

E|-------------------1---1---1---1-------------------1---1---1---1--|
A|---4---4---6---6-------------------4---4---6---6------------------|
D|------------------------------------------------------------------|
G|------------------------------------------------------------------|

E|-----------4---4-----------1---1---4---4---4---4------------------|
A|---4---4-----------6---6-------------------------6*---------------|
D|------------------------------------------------------------------|
G|------------------------------------------------------------------|

**On this part, play on every beat rather than the offbeat**
E|-------------------1---1---1---1-------------------1---1---1---1--|
A|---4---4---6---6-------------------4---4---6---6------------------|
D|------------------------------------------------------------------|
G|------------------------------------------------------------------|

E|-----------4---4-----------1---1---4---4---4---4------------------|
A|---4---4-----------6---6-------------------------6*---------------|
D|------------------------------------------------------------------|
G|------------------------------------------------------------------|

**Back to offbeats :)**
E|-------------------1---1---1---1-------------------1---1---1---1--|
A|---4---4---6---6-------------------4---4---6---6------------------|
D|------------------------------------------------------------------|
G|------------------------------------------------------------------|

E|-----------4---4-----------1---1---4---4---4---4------------------|
A|---4---4-----------6---6---------------------------6---6---6---6--|
D|------------------------------------------------------------------|
G|------------------------------------------------------------------|

E|-------------------1---1---1---1-------------------1---1---1---1--|
A|---4---4---6---6-------------------4---4---6---6------------------|
D|------------------------------------------------------------------|
G|------------------------------------------------------------------|

E|-----------4---4-----------1---1---4---4---4---4--------------------|
A|---4---4-----------6---6---------------------------6---6---6---6-6--|
D|--------------------------------------------------------------------|
G|--------------------------------------------------------------------|


Verse
1:40-2:04
E|-|1-1-|1-1-|1-1-|1-1-|4-4-|4-4-|4-4-|4-4-|----------------------------------|
A|-|----|----|----|----|----|----|----|----|6-6-6-6-6-6-6-6-4-4-4-4-4-4-4-4---|
D|-|----|----|----|----|----|----|----|----|----------------------------------|
G|-|----|----|----|----|----|----|----|----|----------------------------------|

E|-1-1-1-1-1-1-1-1-4-4-4-4-4-4-4-4----------------------------------|
A|---------------------------------6-6-6-6-6-6-6-6-6-6-6-6-6-6-6-6--|
D|------------------------------------------------------------------|
G|------------------------------------------------------------------|

**Offbeats**
E|-------------------4---4---4---4-------------------1---1---1---1--|
A|---4---4---4---4-------------------6---6---6---6------------------|
D|------------------------------------------------------------------|
G|------------------------------------------------------------------|

E|-------------------4---4---4---4----------------------------------|
A|---4---4---4---4-------------------6---6---6---6---6-6*-----------|
D|------------------------------------------------------------------|
G|------------------------------------------------------------------|


Chorus
2:04-3:18
E|-------------------1---1---1---1-------------------1---1---1---1--|
A|---4---4---6---6-------------------4---4---6---6------------------|
D|------------------------------------------------------------------|
G|------------------------------------------------------------------|

E|-----------4---4-----------1---1---4---4---4---4------------------|
A|---4---4-----------6---6---------------------------6---6---6---6--|
D|------------------------------------------------------------------|
G|------------------------------------------------------------------|

E|-------------------1---1---1---1-------------------1---1---1---1--|
A|---4---4---6---6-------------------4---4---6---6------------------|
D|------------------------------------------------------------------|
G|------------------------------------------------------------------|

E|-----------4---4-----------1---1---4---4---4---4------------------|
A|---4---4-----------6---6---------------------------6---6---6---6--|
D|------------------------------------------------------------------|
G|------------------------------------------------------------------|

E|-------------------1---1---1---1-------------------1---1---1---1--|
A|---4---4---6---6-------------------4---4---6---6------------------|
D|------------------------------------------------------------------|
G|------------------------------------------------------------------|

E|-----------4---4-----------1---1---4---4---4---4------------------|
A|---4---4-----------6---6---------------------------6---6---6---6--|
D|------------------------------------------------------------------|
G|------------------------------------------------------------------|

E|-------------------1---1---1---1-------------------1---1---1---1--|
A|---4---4---6---6-------------------4---4---6---6------------------|
D|------------------------------------------------------------------|
G|------------------------------------------------------------------|

E|-----------4---4-----------1---1---4---4---4---4------------------|
A|---4---4-----------6---6---------------------------6---6---6---6--|
D|------------------------------------------------------------------|
G|------------------------------------------------------------------|

E|-------------------1---1---1---1-------------------1---1---1---1--|
A|---4---4---6---6-------------------4---4---6---6------------------|
D|------------------------------------------------------------------|
G|------------------------------------------------------------------|

E|-----------4---4-----------1---1---4---4---4---4--------------------|
A|---4---4-----------6---6---------------------------6---6---6---6-6--|
D|--------------------------------------------------------------------|
G|--------------------------------------------------------------------|

-audraelyse
            
Submit corrections

↑ Back to top | Tablatures and chords for acoustic guitar and electric guitar, ukulele, drums are parodies/interpretations of the original songs. You may use it for private study, scholarship, research or language learning purposes only