» » »

Cary Brothers - Ride Tabs

Artists:  A B C D E F G H I J K L M N O P Q R S T U V W X Y Z # 

Ride Tabs

(ver. 3) Click to play this song!
Cary Brothers
 Rating:
4.2/5 (5 votes)

 Ride lessons Tabs too difficult? Try these video lessons and learn fast
 
                This song has three different guitar parts... so listen to when each is played..
the guitar starts out with a solo intro

Guitar 1
e|--------------------------------------------------------------------------|
B|--------------------------------------------------------------------------|
G|--------------------------------------------------------------------------|
D|--0--10--9----------------------------------------------------------------|
A|------------10----7---5-7-5-----------------------------------------------|
E|--------------------------------------------------------------------------|

Guitar 2 Rythm
Chords played A2, C, G D

Guitar 3
e|--------------------------------------------------------------------------|
B|---10----12---x8--------10----12------------------------------------------|
G|-----------------------------------12----9-----7--------------------------|
D|--------------------------------------------------------------------------|
A|--------------------------------------------------------------------------|
E|--------------------------------------------------------------------------|

Outro lick
e|--------14------15-----14---12--------------------------------------------|
B|---12-------12-----12-----------12--13-12---------------------------------|
G|--------------------------------------------------------------------------|
D|--------------------------------------------------------------------------|
A|--------------------------------------------------------------------------|
E|--------------------------------------------------------------------------|

guitar 1 and 2 plays for all the verses and guitars 2 and 3 are for the chorus.. its a 
song.. just listen and play along
            
Submit corrections


        Ride lessons Hard to play? Try these video lessons and learn fast Ride lessons
        
↑ Back to top | Tablatures and chords for acoustic guitar and electric guitar, ukulele, drums are parodies/interpretations of the original songs. You may use it for private study, scholarship, research or language learning purposes only