» » »

Cary Brothers - Honestly Tabs

Artists:  A B C D E F G H I J K L M N O P Q R S T U V W X Y Z # 

Honestly Tabs

(ver. 2) Click to play this song!
Cary Brothers
 Rating:
4.4/5 (7 votes)

 Honestly lessons Tabs too difficult? Try these video lessons and learn fast
 
                -------------------------------------------------------------------------------
-------------------------------------------------------------------------------

Tuning: Standard (Capo 5)


"Think I'm going home"

e|-----3-------3--------3-------3--------------------------------------------|
B|-0h1---1-------1--------0-------0------------------------------------------|
G|-0-------------------------------------------------------------------------|
D|---------------------------------------------------------------------------|
A|-3---------0---------------------------------------------------------------|
E|-------------------3--------1----------------------------------------------|


"So, I'll file away..."

e|---------------------------------------------------------------------------|
B|---0---0-0-0-------0---0-1-0-----------------------------------------------|
G|---0---0-0-0-------0---0-0-0-----------------------------------------------|
D|---------------------------------------------------------------------------|
A|---------------------------------------------------------------------------|
E|-3---3----------1----1-----------------------------------------------------|


"I wished you're love away"

e|-----0------0-----1-------0---------0-----0---------0-----0----------------|
B|-0h1---1------1---1-1-------1---------1-----1---------1-----1--------------|
G|-0--------------------0-----------0---------------0------------------------|
D|------------------3-----3--------------------------------------------------|
A|-3--------0----------------------------------------------------------------|
E|--------------------------------1-------1-------1-------1------------------|


"Honestly..."

e|-----0-----0-------0-----0----------0-----0-------0-----0------------------|
B|-------1-----1-------1-----0----------1-----1-------1-----1----------------|
G|---0-------------0----------------0-------------0--------------------------|
D|---------------------------------------------------------------------------|
A|---------------------------------------------------------------------------|
E|-3-------3-----3-------3--------1-------1-----1-------1--------------------|


That's all of the parts.
The only variation is that of the second part,
where he sings "So, I'll drive away", where he plays the following:

e|---------------------------------------------------------------------------|
B|---0---3-1-0-------0---0-1-0-----------------------------------------------|
G|---0---0-0-0-------0---0-0-0-----------------------------------------------|
D|---------------------------------------------------------------------------|
A|---------------------------------------------------------------------------|
E|-3---3----------1----1-----------------------------------------------------|


| /  slide up
| \  slide down
| h  hammer-on
| p  pull-off
| ~  vibrato
| +  harmonic
| x  Mute note
===============================================================================
            
Submit corrections


        Honestly lessons Hard to play? Try these video lessons and learn fast Honestly lessons
        
↑ Back to top | Tablatures and chords for acoustic guitar and electric guitar, ukulele, drums are parodies/interpretations of the original songs. You may use it for private study, scholarship, research or language learning purposes only