Home » C » Car Seat Headrest »

Car Seat Headrest - Sober To Death Face To Face Tabs

Artists:  A B C D E F G H I J K L M N O P Q R S T U V W X Y Z # 

Sober To Death Face To Face Tabs

(ver. 1) Click to play this song!
Car Seat Headrest
 Rating:
4.4/5 (11 votes)
                Chord Diagrams:
    G*  G   Em  Em7 C/G C/G* ???  ???* Bm   C   D   Am   
e|--3---3---0---0---0---0----0----0----2----0---2---0---|
B|--0---0---0---0---1---1----0----0----3----1---3---1---|
G|--0---0---0---0---0---0----0----0----4----0---2---2---|
D|--2---2---2---0---2---0----2----0----4----2---0---2---|
A|--0---0---2---2---3---3----2----2----2----3---x---0---|
E|--3---3---0---0---3---3----2----2----2----x---x---x---|



[INTRO]
  
e|-------------------------------------------------------------------------------|
B|-------------------------------------------------------------------------------|
G|-------------------------------------------------------------------------------|
D|---------2---------0--------0--------------------2--------0--------0-----------|
A|---0--------0---------2--------2-----0-----0--------0--------2--------2-----0--|
E|3-----3--------3---------3--------3-----3-----3--------3--------3--------3-----|

 
e|-------------------------------------------------------------------------------|
B|-------------------------------------------------------------------------------|
G|-------------------------------------------------------------------------------|
D|---------2--------0--------0--------------------2---------0--------0-----------|
A|---2--------2--------2--------2-----0-----3--------3---------3--------3-----0--|
E|0-----0--------0--------0--------0-----3-----3--------3---------3--------3-----|


[VERSE]
  
e|-------------------------------------------------------------------------------|
B|-------------------------------------------------------------------------------|
G|-------------------------------------------------------------------------------|
D|---------2---------0--------0--------------------2--------0--------0-----------|
A|---0--------0---------2--------2-----0-----0--------0--------2--------2-----0--|
E|3-----3--------3---------3--------3-----3-----3--------3--------3--------3-----|
           Lovely    lovely,                     in your jeans, frenzy         

  
e|-------------------------------------------------------------------------------|
B|-------------------------------------------------------------------------------|
G|-------------------------------------------------------------------------------|
D|---------2--------0--------0--------------------2---------0--------0-----------|
A|---2--------2--------2--------2-----0-----3--------3---------3--------3-----0--|
E|0-----0--------0--------0--------0-----3-----3--------3---------3--------3-----|    
  another movie that I didn’t watch with you, another movie and I’m gonna have to move 

  
e|-------------------------------------------------------------------------------|
B|-------------------------------------------------------------------------------|
G|-------------------------------------------------------------------------------|
D|---------2---------0--------0--------------------2--------0--------0-----------|
A|---0--------0---------2--------2-----0-----2--------2--------2--------2-----0--|
E|3-----3--------3---------3--------3-----0-----0--------0--------0--------0-----|
  The final terror is in your house somewhere, hiding in boxes behind closed doorways
 
 
e|-------------------------------------------------------------------------------|
B|-------------------------------------------------------------------------------|
G|-------------------------------------------------------------------------------|
D|---------2--------0--------0--------------------2---------0--------0-----------|
A|---3--------3--------2--------2-----0-----2--------2---------2--------2-----0--|
E|3-----3--------3--------3--------3-----2-----2--------2---------2--------2-----| 
  Out from the forest adjacent to your g'rage. I’ve seen its marks at the corners of your eyes

[PRE-CHORUS]

   C/G               C/G*
e|--X-----------------0--|
B|--X-----------------1--|
G|--X-----------------0--|
D|--2-----------------0--|
A|--3-----------------X--|
E|--3-----------------X--|
    Nothing works,

                     Em         Em7
e|-------------------X-----------0--|
B|-------------------X-----------0--|
G|-------------------X-----------0--|
D|-------------------2-----------0--|
A|-------------------2-----------X--|
E|-------------------0-----------X--|
    Nothing works for everyone 

                    C/G         C/G*
e|-------------------X-----------0--|
B|-------------------X-----------1--|
G|-------------------X-----------0--|
D|-------------------2-----------0--|
A|-------------------3-----------X--|
E|-------------------3-----------X--|
    Good stories are bad lives

                    ??? .     ???*
e|-------------------X-----------0--|
B|-------------------X-----------0--|
G|-------------------X-----------0--|
D|-------------------2-----------0--|
A|-------------------2-----------X--|
E|-------------------2-----------X--|
    Good stories are bad lives

[CHORUS]       
Bm     C          Am       Em       G             D                      G                    Em
  Take your hands off your neck and hold on to the ghost of my body, you know that good lives make bad stories
Bm      C      Bm     C        Am     Em       G                       D              G
You can text me, When punching mattresses gets old. Don't think it'll always be this way,
                 Em              Bm      C        Am      Em                G
Not comforted by anything I say, we were wrecks before we crashed into each other.


[VERSE] (In the original FtF version, no chords play here, but these are from the Tiny Desk Concert version)

G*      G         G*   G
 Such a good idea, if it turns you on         

Em       Em7            C/G                     C/G*   
 We have breakdowns and sometimes we don’t have breakdowns 

  G*                    G                    G*                  G 
e|-------------------------------------------------------------------------------|
B|-------------------------------------------------------------------------------|
G|-------------------------------------------------------------------------------|
D|---------2---------0--------0--------------------2--------0--------0-----------|
A|---0--------0---------2--------2-----0-----0--------0--------2--------2-----0--|
E|3-----3--------3---------3--------3-----3-----3--------3--------3--------3-----|
       I want to hear you going psycho    if you’re going psycho I wanna hear
 
 Em .                Em7
e|----------------------------------------|
B|----------------------------------------|
G|----------------------------------------|
D|---------2---------0--------0-----------|
A|---2--------2---------2--------2-----0--|
E|0-----0--------0---------0--------0-----|    
  Every conversation just ends with you screaming

C/G                   C/G*            
e|----------------------------------------|
B|----------------------------------------|
G|----------------------------------------|
D|---------2---------0--------0-----------|
A|---3--------3---------3--------3-----0--|
E|3-----3--------3---------3--------3-----|
                                      
Not even words, just ahh- ahh- ahha-  

[BREAK W/ SOLO]

G* G G* G 
ahhhhhhhh...
               Em        Em7      C/G         C/G*               G* 
e|------------------------------------------------------------------|
B|---------------------------------------------------------------12-|
G|------------------------------------------------------------------|
D|-------5--7--7b--5-----7--5-----5-----7-----7/9-9-9-9-9-7----7-9--|
A|-5--7---------------7--------7-----7-----7----------------10------|
E|------------------------------------------------------------------|
...hhhhhhhhhhhhhhhhhhhhhhhhhhhhhhhhhhhhhhhhhhhhhhhhhhhhhhhhhhhhhhhh...

   G*       G          G*                 G                     Em        Em7         C/G        C/G*
e|--------------------10-----------------------------------------------10/12-12-12----------------------|
B|--12-12b-12--12-12b----12-12-12-12-10--------10-12-10----10-12-12-12-------------12b-12b-12b-12-12-10-|
G|--------------------------------------12--12----------12----------------------------------------------|
D|------------------------------------------------------------------------------------------------------|
A|------------------------------------------------------------------------------------------------------|
E|------------------------------------------------------------------------------------------------------|
...hhhhhhhhhhhhhhhhhhh .                          mmmmmmmmmmmmmmmmmmmmmmmmmmmm

[CHORUS]
Bm     C          Am       Em       G             D                   
  Take your hands off your neck and hold on to the ghost of your body, 
    G                    Em
you know that good lives make bad stories
Bm      C      Bm     C        Am     Em       G                       D              G
You can text me, When punching mattresses gets old. What if it'll always be this way,
                 Em                Bm      C        N.C.                      G
Not comforted by anything you say, we were wrecks before we crashed into each other.

[BREAK]
G D G Em Bm C Am Em
 
[BRIDGE] x2
     C                       G (strum)     Em               D (strum)
e|-----------0--------------3--3--3-3-3-----------0--------2-2-2--2-2-2--------------|
B|--------------1-----------0--0--0-0-0--------------0-----3-3-3--3-3-3--------------|
G|--------0--------0--------0--0--0-0-0--------0--------0--2-2-2--2-2-2--------------|
D|-----2--------------------0--0--0-0-0-----2--------------0-0-0--0-0-0--------------|
A|--3-----------------------2--2--2-2-2--2-----------------x-x-x--x-x-x--------------|
E|--------------------------3--3--3-3-3--------------------x-x-x--x-x-x--------------|
               Don't worry,          you and me won't be alone no more.

    Am                 G (strum)      D                   Am (strum)
e|-----------0--------3-3-3--3-3-3-------------2--------0-0-0-0-0-0-0-0-------------|
B|--------------1-----0-0-0--0-0-0----------3-----3-----1-1-1-1-1-1-1-1-------------|
G|--------2--------0--0-0-0--0-0-0-------2-----------2--2-2-2-2-2-2-2-2-------------|
D|-----2--------------0-0-0--0-0-0---0------------------2-2-2-2-2-2-2-2-------------|
A|--0-----------------2-2-2--2-2-2----------------------0-0-0-0-0-0-0-0-------------|
E|--------------------3-3-3--3-3-3----------------------x-x-x-x-x-x-x-x-------------|
         Don't worry,            you and me won't be alone no more.

     C                      G (strum)     Em                D (strum)
e|-----------0--------------3--3--3-3-3-----------0--------2-2-2--2-2-2--------------|
B|--------------1-----------0--0--0-0-0--------------0-----3-3-3--3-3-3--------------|
G|--------0--------0--------0--0--0-0-0--------0--------0--2-2-2--2-2-2--------------|
D|-----2--------------------0--0--0-0-0-----2--------------0-0-0--0-0-0--------------|
A|--3-----------------------2--2--2-2-2--2-----------------x-x-x--x-x-x--------------|
E|--------------------------3--3--3-3-3--------------------x-x-x--x-x-x--------------|
               Don't worry,          you and me won't be alone no more.

    Am                 G (strum)        D                  Am (strum)
e|-----------0--------3-3-3--3-3-3-------------2--------0-0-0-0-0-0-0-0-------------|
B|--------------1-----0-0-0--0-0-0----------3-----3-----1-1-1-1-1-1-1-1-------------|
G|--------2--------0--0-0-0--0-0-0-------2-----------2--2-2-2-2-2-2-2-2-------------|
D|-----2--------------0-0-0--0-0-0---0------------------2-2-2-2-2-2-2-2-------------|
A|--0-----------------2-2-2--2-2-2----------------------0-0-0-0-0-0-0-0-------------|
E|--------------------3-3-3--3-3-3----------------------x-x-x-x-x-x-x-x-------------|
         Don't worry,            you and me won't be alone no more.

 
[Outro]
    C                           (G)        Em                D (strum)
e|-----------0-------------------------------------0--------2-2-2--2-2-2--------------|
B|--------------1-------------------------------------0-----3-3-3--3-3-3--------------|
G|-----------------0----------------------------0--------0--2-2-2--2-2-2--------------|
D|-------------------------------------------2--------------0-0-0--0-0-0--------------|
A|--3-----------------------2--2--2-2-2---2-----------------x-x-x--x-x-x--------------|
E|--------------------------3--3--3-3-3---------------------x-x-x--x-x-x--------------|
               Don't worry,          you and me won't be alone no more.

    Am                 G (strum)    D                 N.C.
e|-----------0--------3--3--3-3-3-------------2--------|
B|--------------1-----0--0--0-0-0----------3-----3-----|
G|--------2--------0--0--0--0-0-0-------2-----------2--|
D|-----2--------------0--0--0-0-0---0------------------|
A|--0-----------------2--2--2-2-2----------------------|
E|--------------------3--3--3-3-3----------------------|
         Don't worry,            you and me won't be alone no more.

     C                          (G)       Em                D (strum)
e|-----------0------------------------------------0--------2-2-2--2-2-2--------------|
B|--------------1------------------------------------0-----3-3-3--3-3-3--------------|
G|-----------------0---------------------------0--------0--2-2-2--2-2-2--------------|
D|------------------------------------------2--------------0-0-0--0-0-0--------------|
A|--3-----------------------2--2--2-2-2--2-----------------x-x-x--x-x-x--------------|
E|--------------------------3--3--3-3-3--------------------x-x-x--x-x-x--------------|
               Don't worry,          you and me won't be alone no more.

    Am               N.C.
e|-----------0-------|
B|--------------1----|
G|--------2--------0-|
D|-----2-------------|
A|--0----------------|
E|-------------------|
         Don't worry,            you and me won't be alone no more.            
Submit corrections

↑ Back to top | Tablatures and chords for acoustic guitar and electric guitar, ukulele, drums are parodies/interpretations of the original songs. You may use it for private study, scholarship, research or language learning purposes only