» » »

Car Seat Headrest - Just What I Needed Tabs

Artists:  A B C D E F G H I J K L M N O P Q R S T U V W X Y Z # 

Just What I Needed Tabs

(ver. 1) Click to play this song!
Car Seat Headrest
 Rating:
2.2/5 (25 votes)

 Just What I Needed  lessons Tabs too difficult? Try these video lessons and learn fast
 
                Intro

    E                 4x
e|--------------------------7----|
B|--------------------------9----|
G|--------------------------9----|
D|--------------------------9----|
A|--(7)-(7)-(7)-(7)-(7)-(7)-7----|
E|--------------------------7----|

    E                 4x
e|--------------------------7-7--|
B|--------------------------9-9--|
G|--------------------------9-9--|
D|--------------------------9-9--|
A|--(7)-(7)-(7)-(7)-(7)-(7)-7-7--|
E|--------------------------7-7--|


  E                   B           C#m
     I don't mind you comin' here
               G#   E
wastin' all my time
                            B          C#m
'cause when you're standin' oh so near
                G#   E
I kinda lose my mind
                     B             C#m
it's not the perfume that you wear
                     G#           E
it's not the ribbons in your hair
                 B           G#
I don't mind you comin' here
                   A
and wastin' all my time


(chords during interlude 1)

|   E   |   B   |  C#m  |   G#  |

|   E   |   B   |  C#m  | E B A |

___________________________________________________________________________________

   interlude 1

   e|------------12-11-9-----------------------------12-11-9--------------------|
   B|--12s9h12-9---------12s13--7s12-12s9--12s9-12-9---------12-9s14-9s12-7s10--|
   G|---------------------------------------------------------------------------|
   D|---------------------------------------------------------------------------|
   A|---------------------------------------------------------------------------|
   E|---------------------------------------------------------------------------|
___________________________________________________________________________________


  E                   B           C#m
     I don't mind you hangin' out
                    G#    E
and talkin' in your sleep
                  B                 C#m
it doesn't matter where you've been
                  G#         E (and/or interlude 1)
as long as it was deep, yeah
                   B                C#m
you always knew to wear it well and
                  G#         E
you look so fancy I can tell
                 B           G#
I don't mind you hangin' out
                    A     E
and talkin' in your sleep


               A           C#m    E   B
I guess you're just what I needed
         A          C#m  E  B
I needed someone to feed
               A           C#m    E   B
I guess you're just what I needed
         A          C#m   C#m
I needed someone to bleed


(chords during guitar solo)

|    E    |    B    |    C#m   |    G#   |

|    E    |    B    |    C#m   |    A    |

|    E    |    B    |    C#m   |    G#   |

|    E    |    B    | C#m G# A |  B  E E |


____________________________________________________________________________
Guitar solo

e|----------------------------------------------------------7b9r7-5-7b9--|
B|--7b9-7b9-7b9-7b9r7-5---------------------------5-4-7-7-5--------------|
G|----------------------6b8r6-4-6b8r6-5h6p5-4-4-6------------------------|
D|-----------------------------------------------------------------------|
A|-----------------------------------------------------------------------|
E|-----------------------------------------------------------------------|

e|--7b9r7p5-7b9r7-7-7-7b9-------------------6b8-6b8r6p4-------7----------|
B|------------------------7b9-7-7-5-----------------------7s9---9s7------|
G|----------------------------------6b8-6-5-------------------------9-6--|
D|-----------------------------------------------------------------------|
A|-----------------------------------------------------------------------|
E|-----------------------------------------------------------------------|

e|--7s9--9s11--11s12--12s14--14s15--15s16--|
B|-----------------------------------------|
G|-----------------------------------------|
D|-----------------------------------------|
A|-----------------------------------------|
E|-----------------------------------------|
____________________________________________________________________________


   E                   B           C#m
      I don't mind you comin' here
                   G#        E
and wastin' all my time time
                            B          C#m
'cause when you're standin' oh so near
                G#         E (and/or interlude 2)
I kinda lose my mind, yeah
                     B             C#m
it's not the perfume that you wear
                     G#           E
it's not the ribbons in your hair
                 B           G#
I don't mind you comin' here
                   A    E  B
and wastin' all my time


               A           C#m    E   B
I guess you're just what I needed
         A          C#m  E  B
I needed someone to feed
               A           C#m    E   B
I guess you're just what I needed
         A          C#m   C#m  E  B
I needed someone to bleed


               A           C#m    E   B
I guess you're just what I needed
         A          C#m  E  B
I needed someone to feed
               A           C#m    E   B
I guess you're just what I needed
         A          C#m
I needed someone to bleed

  C#m
      yeah, yeah, so bleed me

(interlude 3)

|  E  B  | C#m G# |  E  B  | C#m  A |
                                  you're just what I needed

|  E  B  | C#m G# |  E  B  | C#m  A |
                                  you're just what I needed

|  E  B  | C#m G# |  E  B  | C#m  A |
                                  you're just what I needed

|  E  B  | C#m G# |  E  B  | C#m    |
      yeah, yeah yeah


___________________________________________________________________________________
   interlude 2

   e|------------12-11-9--------------------12-11-9-------|
   B|--12s9h12-9---------12s13----12s9-12-9---------12----|
   G|--------------------------------------------------9--|
   D|-----------------------------------------------------|
   A|-----------------------------------------------------|
   E|-----------------------------------------------------|
___________________________________________________________________________________



___________________________________________________________________________________
   interlude 3
       3x
   e||--------------------9-11-----------------------||
   B||---------9-----12-9-------------9----12-9------||
   G||*---13s9---11--------------13s9---11------9---*||
   D||*---------------------------------------------*||
   A||-----------------------------------------------||
   E||-----------------------------------------------||

   e|--------------------9-11-------------------9--|
   B|---------9-----12-9-------------9-----9-12----|
   G|---13s9---11--------------13s9---11-----------|
   D|----------------------------------------------|
   A|----------------------------------------------|
   E|----------------------------------------------|
___________________________________________________________________________________
            
Submit corrections


        Just What I Needed  lessons Hard to play? Try these video lessons and learn fast Just What I Needed  lessons
        
↑ Back to top | Tablatures and chords for acoustic guitar and electric guitar, ukulele, drums are parodies/interpretations of the original songs. You may use it for private study, scholarship, research or language learning purposes only