» » »

Car Seat Headrest - Famous Prophets Minds Tabs

Artists:  A B C D E F G H I J K L M N O P Q R S T U V W X Y Z # 

Famous Prophets Minds Tabs

(ver. 1) Click to play this song!
Car Seat Headrest
 Rating:
4.3/5 (27 votes)

 Famous Prophets Minds lessons Tabs too difficult? Try these video lessons and learn fast
 
                [part 1]

G|---------------------------------------------------------------------------|
D|---------------------------------------------------------------------------|
A|---9--9---9-9-9-9--9-9\-0--0--0-0-0-0--0--9--9--9-9-9-9--9-9\-0-0--0-0-0-0-|
E|---------------------------------------------------------------------------|

G|---------------------------------------------------------------------------|
D|---------------------------------------------------------------------------|
A|-7--7---7-7-7-7--7--7-5--5--5-5-5-5--5--7--7--7-7-7-7-7-9--9--9-9-0--0--0-0|
E|---------------------------------------------------------------------------|
 
Just repeat this until it changes, it playes this for about half the song
 
[part 2] 
G|-------7-------------6-------------4-------------2-------------------------|
D|---------------------------------------------------------------------------|
A|-5-5-5---5-5-5-4-4-4---4-4-3-2-2-2---2-2-1-0-0-0---0-2-5-------------------|
E|---------------------------------------------------------------------------|            
Submit corrections


        Famous Prophets Minds lessons Hard to play? Try these video lessons and learn fast Famous Prophets Minds lessons
        
↑ Back to top | Tablatures and chords for acoustic guitar and electric guitar, ukulele, drums are parodies/interpretations of the original songs. You may use it for private study, scholarship, research or language learning purposes only