» » »

Cars - Shake It Up Tabs

Artists:  A B C D E F G H I J K L M N O P Q R S T U V W X Y Z # 

Shake It Up Tabs

(ver. 2) Click to play this song!
Cars
 Rating:
4/5 (4 votes)

 Shake It Up lessons Tabs too difficult? Try these video lessons and learn fast
 
                                               The Cars
                              Shake It Up
                              Shake it Up

Yeah.......... I dont Know if it sounds right but, I think i got it

Legend
\ = Slide down       / = Slide Up
p = pull off         ~ = let it ring
h = hammer on
X = Strum But Dont press Fret
^ = bend

     E ---------------------------------------------------------------------|
     B -------------13-13~~~~-----------13-13~~~~-----------13-13~~~~-------|
     G -----11ph-12----12~~~~---11ph-12----12~~~~---11ph-12----12~~~~-------|
     D ---------------------------------------------------------------------|
     A ---------------------------------------------------------------------|
     E ---------------------------------------------------------------------|


     E 15-15-15-XXXXXXXXXXXXXXXXXXX-12-12-12-XXXXXXXXXXXXXXXXXXX------------|
     B ---------------------------------------------------------------------|
     G ---------------------------------------------------------------------|
     D ---------------------------------------------------------------------|
     A ---------------------------------------------------------------------|
     E ---------------------------------------------------------------------|

     E ---------------------------------------------------------------------|
     B -------------13-13~~~~-----------13-13~~~~-----------13-13~~~~-------|
     G -----11ph-12----12~~~~---11ph-12----12~~~~---11ph-12----12~~~~-------|
     D ---------------------------------------------------------------------|
     A ---------------------------------------------------------------------|
     E ---------------------------------------------------------------------|

     E -------------------------------15---12---8-----8--8--8/--------------|
     B ---17--17--17--13--13--13-------------------8------------------------|
     G ---17--17--17--------------------------------------------------------|
     D ---------------------------------------------------------------------|
     A ---------------------------------------------------------------------|
     E ---------------------------------------------------------------------|

    Thats all i got srry!!!!! i dont know the rest but have fun!!!!!!!!!!!!
            
Submit corrections


        Shake It Up lessons Hard to play? Try these video lessons and learn fast Shake It Up lessons
        
↑ Back to top | Tablatures and chords for acoustic guitar and electric guitar, ukulele, drums are parodies/interpretations of the original songs. You may use it for private study, scholarship, research or language learning purposes only