» » »

Cars - My Best Friends Girl Tabs

Artists:  A B C D E F G H I J K L M N O P Q R S T U V W X Y Z # 

My Best Friends Girl Tabs

(ver. 2) Click to play this song!
Cars
 Rating:
4/5 (4 votes)

 My Best Friends Girl lessons Tabs too difficult? Try these video lessons and learn fast
 
                "(1)
Intro 8 times
         -----------------------------------|
         -----------------------------------|
         -----------------3-3-3-3-5-5-5-5-5-|
         3-3-3-3--3-3-3-3-3-3-3-3-5-5-5-5-5-|
         3-3-3-3--3-3-3-3-1-1-1-1-3-3-3-3-3-|
         1-1-1-1--1-1-1-1-------------------|

         choris 4 times
         ----------------------------|
         ----------------------------|
         ----------------------------|
         -------0---------3-----0-2--|
         -----3---3-1-1-3^--3-3------|
         1-3^------------------------|
         fill 3 times
         --------------------------------|
         3-3-3-3-3-3-3-3-5-5-5-5-5-5-5-5-|
         3-3-3-3-3-3-3-3-5-5-5-5-5-5-5-5-|
         1-1-1-1-1-1-1-1-3-3-3-3-3-3-3-3-|
         --------------------------------|
         verse
         1---1-----------1---1--------1---1-----------1----0--|
         --3---1-----------3------------3---1------------3----|
         -----------2h3---------1h2--------------2h3----------|
         -----------------------------------------------------|
         -----------------------------------------------------|
         -----------------------------------------------------|
         chors 4 times
         -----------------------------------|
         -----------------------------------|
         -----------------3-3-3-3-5-5-5-5-5-|
         3-3-3-3--3-3-3-3-3-3-3-3-5-5-5-5-5-|
         3-3-3-3--3-3-3-3-1-1-1-1-3-3-3-3-3-|
         1-1-1-1--1-1-1-1-------------------|
         verse 2 times
         1---1-----------1---1--------1---1-----------1----0--|
         --3---1-----------3------------3---1------------3----|
         -----------2h3---------1h2--------------2h3----------|
         -----------------------------------------------------|
         -----------------------------------------------------|
         -----------------------------------------------------|
         fill 3 times
         --------------------------------|
         3-3-3-3-3-3-3-3-5-5-5-5-5-5-5-5-|
         3-3-3-3-3-3-3-3-5-5-5-5-5-5-5-5-|
         1-1-1-1-1-1-1-1-3-3-3-3-3-3-3-3-|
         --------------------------------|
         verse
         1---1-----------1---1--------1---1-----------1----0--|
         --3---1-----------3------------3---1------------3----|
         -----------2h3---------1h2--------------2h3----------|
         -----------------------------------------------------|
         -----------------------------------------------------|
         -----------------------------------------------------|
         Guitar solo
   -----------------1--10-10---12^12--10--8-6-12^-10-12-6-12-12-10--8-10-8-6-|
   ------------1-1-----------------------------------------------------------|
   ----2-2-3h4---------------------------------------------------------------|
   2h3-----------------------------------------------------------------------|
   --------------------------------------------------------------------------|
   --------------------------------------------------------------------------|


         ------8----6----/8--6---4p3p1---1-----------|
         1-2-3---3----3----------------4-------------|
         ----------------------------------3p1-------|
         -------------------------------------3p1h3--|
         --------------------------------------------|
         --------------------------------------------|

         1---1-----------1----4p3p1---1-------------1---1---------1-----5-|
         --3---1-----------3--------4-----3p1---------3---1----------3----|
         -----------2h3-----------------------3p1h3-----------2h3---------|
         -----------------------------------------------------------------|
         -----------------------------------------------------------------|
         -----------------------------------------------------------------|
         verse 4 times
         -----------------------------------|
         -----------------------------------|
         -----------------3-3-3-3-5-5-5-5-5-|
         3-3-3-3--3-3-3-3-3-3-3-3-5-5-5-5-5-|
         3-3-3-3--3-3-3-3-1-1-1-1-3-3-3-3-3-|
         1-1-1-1--1-1-1-1-------------------|
         fill 4 times
         ----------------------------|
         ----------------------------|
         ----------------------------|
         -------0---------3-----0-2--|
         -----3---3-1-1-3^--3-3------|
         1-3^------------------------|
         verse 3 times
         --------------------------------|
         3-3-3-3-3-3-3-3-5-5-5-5-5-5-5-5-|
         3-3-3-3-3-3-3-3-5-5-5-5-5-5-5-5-|
         1-1-1-1-1-1-1-1-3-3-3-3-3-3-3-3-|
         --------------------------------|
         fill
         1---1-----------1---1--------1---1-----------1----0--|
         --3---1-----------3------------3---1------------3----|
         -----------2h3---------1h2--------------2h3----------|
         -----------------------------------------------------|
         -----------------------------------------------------|
         -----------------------------------------------------|
         into a fade afer like 5
         ----------------------------|
         ----------------------------|
         ----------------------------|
         -------0---------3-----0-2--|
         -----3---3-1-1-3^--3-3------|
         1-3^------------------------|
"            
Submit corrections


        My Best Friends Girl lessons Hard to play? Try these video lessons and learn fast My Best Friends Girl lessons
        
↑ Back to top | Tablatures and chords for acoustic guitar and electric guitar, ukulele, drums are parodies/interpretations of the original songs. You may use it for private study, scholarship, research or language learning purposes only