» » »

Cars - Drive Bass

Artists:  A B C D E F G H I J K L M N O P Q R S T U V W X Y Z # 

Drive Bass

(ver. 2) Click to play this song!
Cars
 Rating:
2.9/5 (20 votes)

 Drive lessons Tabs too difficult? Try these video lessons and learn fast
 
                 Intro
  Q=83
 4/4
  Gtr I
  Wx8
|--------||
|--------||
|--------||
|--------||


 1st Verse
  Wx8
|--------||
|--------||
|--------||
|--------||


 Chorus
  S S E S E S +H       S S E S E S +H
|--------------------|--------------------|
|--------------------|--------------------|
|--------------------|---4---4---4-(4)----|
|---4---4---4-(4)----|--------------------|


  S S E S E S +H       S S E S E S +H
|--------------------|--------------------|
|--------------------|--------------------|
|--------------------|---4---4---4-(4)----|
|---4---4---4-(4)----|--------------------|


  S S E S E S +H       S S E S E S +H
|--------------------|--------------------|
|--------------------|--------------------|
|--------------------|--------------------|
|---2---2---2-(2)----|---2---2---2-(2)----|


  S S E S E S +H       S S E S E S +H
|--------------------|--------------------||
|--------------------|--------------------||
|---2---2---2-(2)----|---2---2---2-(2)----||
|--------------------|--------------------||


 2nd Verse
  Wx8
|--------||
|--------||
|--------||
|--------||


 3rd & 4th Verses
  $
  Wx8
|--------||
|--------||
|--------||
|--------||


 Chorus
  S S E S E S +H       S S E S E S +H
|--------------------|--------------------|
|--------------------|--------------------|
|--------------------|---4---4---4-(4)----|
|---4---4---4-(4)----|--------------------|


  S S E S E S +H       S S E S E S +H
|--------------------|--------------------|
|--------------------|--------------------|
|--------------------|---4---4---4-(4)----|
|---4---4---4-(4)----|--------------------|


                                To Coda
  S S E S E S +H       S S E S E S +H
|--------------------|--------------------||
|--------------------|--------------------||
|--------------------|--------------------||
|---2---2---2-(2)----|---2---2---2-(2)----||


 Interlude
  e e e e e e e e   e e e e e e e e
|-----------------|------------------|
|-----------------|------------------|
|-2-2-2-2-2-2-2-2-|------------------|
|-----------------|-4-4-4-4-4-4-4-4--|


  e e e e e e e e   e e e e e e e e   e e e e e e e e   e e e e e e e e
|-----------------|-----------------|-----------------|-----------------|
|-----------------|-----------------|-----------------|-----------------|
|-2-2-2-2-2-2-2-2-|-----------------|-6-6-6-6-6-6-6-6-|-7-7-7-7-7-7-7-7-|
|-----------------|-4-4-4-4-4-4-4-4-|-----------------|-----------------|


                        D.S. al Coda &
  e e e e e e e e   e e e e e e e e
|-----------------|------------------||
|-----------------|------------------||
|-----------------|------------------||
|-2-2-2-2-2-2-2-2-|-2-2-2-2-2-2-2-2--||


  S S E S E S +H       S S E S E S +H
|--------------------|--------------------|
|--------------------|--------------------|
|---2---2---2-(2)----|--------------------|
|--------------------|---4---4---4-(4)----|


  S S E S E S +H       S S E S E S +H
|--------------------|--------------------|
|--------------------|--------------------|
|---4---4---4-(4)----|--------------------|
|--------------------|---4---4---4-(4)----|


  S S E S E S +H       S S E S E S +H       S S E S E S +H
|--------------------|--------------------|--------------------||
|--------------------|--------------------|--------------------||
|---4---4---4-(4)----|--------------------|--------------------||
|--------------------|---2---2---2-(2)----|---2---2---2-(2)----||


 Outro
  S S E S E S +H       S S E S E S +H
|--------------------|--------------------|
|--------------------|--------------------|
|---2---2---2-(2)----|---2---2---2-(2)----|
|--------------------|--------------------|


  S S E S E S +H       W          +W
|--------------------|----------|--------*|
|--------------------|----------|--------*|
|---2---2---2-(2)----|-2--------|-(2)----*|
|--------------------|----------|--------*|            
Submit corrections


        Drive lessons Hard to play? Try these video lessons and learn fast Drive lessons
        
↑ Back to top | Tablatures and chords for acoustic guitar and electric guitar, ukulele, drums are parodies/interpretations of the original songs. You may use it for private study, scholarship, research or language learning purposes only