» » »

Carpenters - Please Mr Postman Tabs

Artists:  A B C D E F G H I J K L M N O P Q R S T U V W X Y Z # 

Please Mr Postman Tabs

(ver. 1) Click to play this song!
Carpenters
 Rating:
4/5 (4 votes)
                Excellent guitar outro to this classic song, as played by Tony Peluso who also played 
'Goodbye to Love' guitar solos.

Any comments, good or bad, much appreciated.

TAB Legend:

h       - Hammer-on
p       - Pull-off
b       - Bend note
r       - Return from bend
s       - Slide


e|-----------------------------------------------------|-2---------------------------|
B|-----------------5b7-5b7-5b7r5-----------------------|-----------------------------|
G|-------2-4-2-4-2---------------2---2-4b6r4-2-2-1s2---|---4b6r4p2---2---------------|
D|-2-2h4---------------------------4-----------------4-|-----------4---4-2-----------|
A|-----------------------------------------------------|-------------------2-0-------|
E|-----------------------------------------------------|-----------------------0-2-2-|

e|-------------------------------------------|
B|--------------------10b12-10b12r10---------|
G|--------------7-9-7----------------7---7-9-|
D|----------7h9------------------------9-----|
A|-/5-5h7s9----------------------------------|
E|-------------------------------------------|

e|-------------------------------------------------------|
B|-12-------------------10-15b17-15b17-15b17r15-13-14----|
G|----11b13(13)r11-9-11-------------------------------14-|
D|-------------------------------------------------------|
A|-------------------------------------------------------|
E|-------------------------------------------------------|

e|-------------------------------------------------------|
B|-15b17r15-13-14----------------------------------------|
G|----------------14----14-16b18r16-14-14s16-13s14-11----|
D|-------------------16-------------------------------11-|
A|-------------------------------------------------------|
E|-------------------------------------------------------|

e|-------------------------------------------------|
B|-14----------------------------------------------|
G|----13b14r13-11-13-11-13b14-13b14r13-11-11s9-9s7-|
D|-------------------------------------------------|
A|-------------------------------------------------|
E|-------------------------------------------------|


e|-----------------------------------|-------------------------------------------------|
B|-12s15s13-13-7s12-12s11s10---------|-10---------------12---------------------12s14---|
G|-11s14s12-12-6s11-11210s9----------|---9b11r9-7---7-9----11b13r11-9-------14------14-|
D|---------------------------10-10-7-|-------------9------------------12s14------------|
A|-----------------------------------|-------------------------------------------------|
E|-----------------------------------|-------------------------------------------------|

e|-14s12----------------------------|-------------------------------|
B|-------14b15r14-------------------|-------------------------------|
G|----------------14b16r14----------|------6------------------------|
D|-------------------------14b16r14-|-9b11---9b11r9p7-7-------7-----|
A|----------------------------------|-------------------9-7-9-------|
E|----------------------------------|---------------------------5s2-|

e|----------------------------------|----------------------------------------9-9-10s12-12-|
B|---------------10b12r10-----------|-10b12r10---------------9-9-10-10-12-12--------------|
G|-------------7----------7h9p7---7-|----------9h11p9-9s11-11-----------------------------|
D|-------7-7h9------------------9---|-----------------------------------------------------|
A|-5-7s9----------------------------|-----------------------------------------------------|
E|----------------------------------|-----------------------------------------------------|
            
Submit corrections

↑ Back to top | Tablatures and chords for acoustic guitar and electric guitar, ukulele, drums are parodies/interpretations of the original songs. You may use it for private study, scholarship, research or language learning purposes only