» » »

Carly Simon - Youre So Vain Tabs

Artists:  A B C D E F G H I J K L M N O P Q R S T U V W X Y Z # 

Youre So Vain Tabs

(ver. 1) Click to play this song!
Carly Simon
 Rating:
4.4/5 (17 votes)

 Youre So Vain  lessons Tabs too difficult? Try these video lessons and learn fast
 
                e|-12----12---12-----------------------|----------15------------------------|
B|-15b---15b--15b--15r-15b~~~15r-13----|----------18b-----------------------|
G|----------------------------------14-|----12-14-----17---16--15---13--10--|
D|-------------------------------------|/14-----------19b--18b-17b--15b-12b-|
A|-------------------------------------|------------------------------------|
E|-------------------------------------|------------------------------------|

e|---------------------|-----17-15-----------------------15b~~~|
B|---------------------|-15b--------15r-13----15b-15r-13-------|
G|-12b-12r-10-12b~~~~--|---------------------------------------|
D|---------------------|---------------------------------------|
A|---------------------|---------------------------------------|
E|---------------------|---------------------------------------|

e|---------------------------------|
B|---------pb15r-13--13b-13r-------|
G|----------------------------12~~~|
D|---------------------------------|
A|---------------------------------|
E|---------------------------------|
            
Submit corrections


        Youre So Vain  lessons Hard to play? Try these video lessons and learn fast Youre So Vain  lessons
        
↑ Back to top | Tablatures and chords for acoustic guitar and electric guitar, ukulele, drums are parodies/interpretations of the original songs. You may use it for private study, scholarship, research or language learning purposes only