» » »

Carlos Santana - Shes Not There Tabs

Artists:  A B C D E F G H I J K L M N O P Q R S T U V W X Y Z # 

Shes Not There Tabs

(ver. 2) Click to play this song!
Carlos Santana
 Rating:
4/5 (4 votes)


 Shes Not There lessons Tabs too difficult? Try these video lessons and learn fast
 
                (Live)

Great song, definitely one of santana's best songs ever!!! Enjoy!!

************************************

| /   slide up
| \   slide down
| h   hammer-on
| p   pull-off
| ~   vibrato
| +   harmonic
| x   Mute note
| b   Bend
| pb  Pre-bend
| br  Bend release
| pbr Pre-bend release
| brb Bend release bend

************************************


Intro
e:--------------------------------------------------------|
B:--------------------------------------------------------|
G:--------------------------------------------------------|
D:-------12-10--------------------12-10--121212-----------|
A:-10-13---------------10---10-13---------------------10--|
E:---------------10-13--------------------------10-13-----|repeat 4 times

Gm     C       Gm        C
 No one told me about her
Gm       C    Gm
 The way she lied
Gm     C        Gm              C
 Well, no one told me about her
Gm         C        Gm
 How many people cried


              C        Cm        Gm
Well, it's too late to say you're sorry
           Dm                 Gm
How would I know, why should I care
            C       Cm            A#
Please don't bother trying to find her
         D7
She's not there...oh oh oh


Nobody told me about her
Though they all knew
Well, nobody told me about her
What could I do


Well, it's too late to say you're sorry
How would I know, why should I care
Please don't bother trying to find her
She's not there....

                               Gm
Well, let me tell you about the way she looked
e:---------------|
B:---------------|
G:---------------|
D:-3-5555p3------|
A:----------5----|
E:---------------|

D
 The way she acted
e:---------------|
B:---------------|
G:---------------|
D:-3-5555p3------|
A:----------5----|
E:---------------|

  D#           Gm   C
the color of her hair
e:---------------|
B:---------------|
G:---------------|
D:-3-5555p3------|
A:----------5----|
E:---------------|

            Gm
Her voice is soft and cool
 D#            Gm
Her eyes are clear and bright
             D7
But she's not there...

e:---------------------------------------------------------------------------|
B:---------------------------------------------------------------------------|
G:-17b19--r1715h17-17-17-17-17-15-17b19r17p15----15-17--15p1415p1415p1415p14-|
D:---------------------------------------------17----------------------------|
A:---------------------------------------------------------------------------|
E:---------------------------------------------------------------------------|

e:---------------------------------------------------15--18-17-15----17------|
B:---------------------------------------------13/15--------------20---20-17-|
G:-17-15-15p14---------------------------------------------------------------|
D:-------------1917------19-17-------19-17-----------------------------------|
A:------------------1917-------19-17-------19--------------------------------|
E:---------------------------------------------------------------------------|

e:------15-----------------------------------------------------15-------15--|
B:-17br-----17br~----17b18-17-15----15--15-------15~15-17-1818^---18-17-----|
G:-------------------------------17--------15-17----------------------------|
D:--------------------------------------------------------------------------|
A:--------------------------------------------------------------------------|
E:--------------------------------------------------------------------------|

e:------------------------333/55--/3333-6666-33333~-----3-------------------|
B:-18-17p15---------------333/55--/3333-6666-33333~-3h5---6-3-5b7r5p3-------|
G:----------17-15----15\--333/55--------------------------------------5-----|
D:----------------17--------------------------------------------------------|
A:--------------------------------------------------------------------------|
E:--------------------------------------------------------------------------|

e:-/3-------------------------3-----15----------------------------------|
B:-/3-6p36p36p36p36p36p36p3-6----------18p15----------------------------|
G:-------------------------------17^---------17-15----------------------|
D:-------------------------------------------------17p15----------------|
A:--------------------------Played very fast------------17p15-----------|
E:------------------------------------------------------------1715\-----|

          C        Cm        Gm
Well, it's too late to say you're sorry
           Dm                 Gm
How would I know, why should I care
            C       Cm            A#
Please don't bother trying to find her
         D7
She's not there...oh oh oh


                               Gm
Well, let me tell you about the way she looked
e:---------------|
B:---------------|
G:---------------|
D:-3-5555p3------|
A:----------5----|
E:---------------|

D
 The way she acted
e:---------------|
B:---------------|
G:---------------|
D:-3-5555p3------|
A:----------5----|
E:---------------|

   D#           Gm   C
the color of her hair
e:---------------|
B:---------------|
G:---------------|
D:-3-5555p3------|
A:----------5----|
E:---------------|

            Gm
Her voice is soft and cool
 D#            Gm
Her eyes are clear and bright
             D7
But she's not there...


e:-3-3-------------------------3-3-----------------------------3-3-----------|
B:-3---3------------------3-6--3---3---------------------------3---3---------|
G:-3-----5~-3h5p3---5-3--------3-----5~-3h5p3---5-3------------3-----5~3h5p3-|
D:-5--------------5-----5------5--------------5-----5-3h5-p3---5-------------|
A:-5---------------------------5-----------------------------5-5-------------|
E:---------------------------------------------------------------------------|

e:------------------6~-8~h10-13~h15\-----3--3-3-------3-3-3-----3-63h6p3---3-|
B:---------3--6-6-8--------------------6--------3-3-6-------3--6---------6---|
G:---5-3----------------------------------------------------this part is ----|
D:-5-----5----------------------------------------------------played very----|
A:-----------------------------------------------------------fast------------|
E:---------------------------------------------------------------------------|

e:---------------------------------------------------------------------20b22-|
B:-6-3h6p3---3-6-3h6p3---3---------------------------------------------------|
G:---------5-----------5---5-3h5p3---3---------------------------------------|
D:---------------------------------5---5-3h5p3---3---------------------------|
A:---------------------------------------------5---5-3h5p3---3---------------|
E:---------------------------------------------------------6---6-3\//--------|

e:-(22)-(22)-20b22-(22)--(22)-20b22r20-20-18--20-18--22^-22^\--333-----------|
B:-------------------------------------------------------------333-----------|
G:-------------------------------------------------------------333-5b7r5p3---|
D:-------------------------------------------------------------------------5-|
A:---------------------------------------------------------------------------|
E:---------------------------------------------------------------------------|


e:--------------------------------------------------------------------|
B:-------------------*Repeat this twice*------------------------------|
G:--------------------------------------------------------------------|
D:*---------------------------------------------------------------*---|
A:----1-1---1h3-1------1-1---1h3-1------1-1---1h3-1------1-3-5~~------|
E:*-3-----3-------3~-3-----3-------3~-3-----3-------3~-3----------*---|


e:-/13///////////////////////////////////\-18^-18^18^~~rp15-18^^^~~-15h18p15-|
B:-/15///////////////////////////////////\-----------------------------------|
G:---------------------------------------------------------------------------|
D:---------------------------------------------------------------------------|
A:---------------------------------------------------------------------------|
E:---------------------------------------------------------------------------|

e:----1515~-------------------18^-18-15-18^^--18^-^-^-18-15----15-15---------|
B:-18-------18-15-------------------------------------------18-------17------|br~~\
G:----------------17^rp15----------------------------------------------------|
D:------------------------17-------------------------------------------------|
A:---------------------------------------------------------------------------|
E:---------------------------------------------------------------------------|

e:-3------------3-5----------------------------------------------------------|
B:-3-5p3--------3-5-3~-5p3---------------------5b6r5-3---5p3-----------------|
G:-------5p3---------------5p3---5-5p3-----------------5-----5p3---3-5~~-5p3-|
D:-----------5-----------------5-------5~5p3---------------------5-----------|
A:-------------------------------------------5-------------------------------|
E:---------------------------------------------------------------------------|


e:-----------------3\--1/3-3-3/6-6-6-8-10-6/88-33\-1/3-33/6-66/8-88/10-10---|
B:-----------------3\--1/3-3-3/6-6-6-8-10-6/88-33\-1/3-33/6-66/8-88/10-10---|
G:---3-------------3\-------------------------------------------------------|
D:-5---5~~-3-5p3------------------------------------------------------------|
A:---------------5----------------------------------------------------------|
E:--------------------------------------------------------------------------|

e:-13p1013p1013p1013p1013p10-----15---------15---------15------18^~~--18-15-|
B:---------------------------------18p15------18p15------18p15--------------|
G:----------------------------17^--------17^--------17^---------------------|
D:--------------------------------------------------------------------------|
A:--------------------------------------------------------------------------|
E:--------------------------------------------------------------------------|

e:-18-17----17-15----15------------------------------------------------------|
B:-------18-------17----18-15-18-17----15--------------------------15--------|
G:----------------------------------17----17br17p15----15--15--15-----15--15-|
D:--------------------------------------------------17---17--17--17-----17---|
A:---------------------------------------------------------------------------|
E:---------------------------------------------------------------------------|

e:-151515-------------151515-----151515-----15-18p17p15-18p17p15-18p17p15---|
B:-151515-------15h17-------15h17------15h17--------------------------------|
G:-151515-17br~~------------------------------------------------------------|
D:--------------------------------------------------------------------------|
A:--------------------------------------------------------------------------|
E:--------------------------------------------------------------------------|

e:-18p17p15-18p17p15-18p15-18^-18^^---18^--18^-18^-18^-18-15----------------|
B:---------------------------------------------18^-----------18-15----------|
G:-----------------------------------------------------------------17-15----|
D:-----------------------------------------------------------------------17-|
A:--------------------------------------------------------------------------|
E:--------------------------------------------------------------------------|

e:----------------------15---------------------------------------------------|
B:-------------15-17-18----17br-15---------------------------------------15--|
G:-17-15----17---------------------17-15----15----17-15----17-15----1517--15-|
D:-------17------------------------------17----17-------17-------17----------|
A:---------------------------------------------------------------------------|
E:---------------------------------------------------------------------------|

e:-15151515\----33---33-6/////8///////10//////13///////15///////---|
B:-15151515\----33---33-6/////8///////10//////13///////15///////---|
G:-15151515\--5^---5^---3/////5///////-7//////10///////12///////---|
D:-----------------------------------------------------------------|
A:-----------------------------------------------------------------|
E:-----------------------------------------------------------------|

Thats it......hope y'all liked it. contact me for any correction, advise etc....
            
Submit corrections



        Shes Not There lessons Hard to play? Try these video lessons and learn fast Shes Not There lessons
        
↑ Back to top | Tablatures and chords for acoustic guitar and electric guitar, ukulele, drums are parodies/interpretations of the original songs. You may use it for private study, scholarship, research or language learning purposes only