Home » C » Carlos Santana »

Carlos Santana - Just Feel Better Tabs

Artists:  A B C D E F G H I J K L M N O P Q R S T U V W X Y Z # 

Just Feel Better Tabs

(ver. 2) Click to play this song!
Carlos Santana
 Hi Heath here,This is a great song and it seems pretty hard but once you get a couple
of the notes it becomes really easy, i've tabbed out the intro and the solo.(becasue the
middle section is easy to find out for yourself but takes forever to write.)  And let me
say i am honoured to be the first person to tab out this song.

Bend=^, Slide=/, Virbrato=~~~, Tremolo=>>>

Intro:

E----------------------------------------------------------------------------|
B---16--15--16--15-----------------------------------------------------------|
G--------------------15--12/17--15~~~~~~-------------------------------------|
D----------------------------------------------------------------------------|
A----------------------------------------------------------------------------|
E----------------------------------------------------------------------------|

I had trouble tabbing the middle of the intro


E-----------------------------------------------------------------------------|
B-14/16--16--16--14/16--16--16--14/16--16--16--14--16--14--18--16--18--16-20~-|
G-----------------------------------------------------------------------------|
D-----------------------------------------------------------------------------|
A-----------------------------------------------------------------------------|
E-----------------------------------------------------------------------------|


Verse's and choruses= all improvisation with the intro's notes


Solo to ending=
E----------------------------------------------------------------------------|
B---16--15--16--15----------------------14^16-14^16-14^16-14^16-14^16-14^16--|
G-------------------15--12/17--15--17----------------------------------------|
D----------------------------------------------------------------------------|
A----------------------------------------------------------------------------|
E----------------------------------------------------------------------------|


E-----------------------------------------------------------------------------|
B---18--16-------14/16~~~--------14^16-14^16-14^16-----19--------14-----------|
G-----------15--------------15-------------------------------15---------------|
D-----------------------------------------------------------------------------|
A-----------------------------------------------------------------------------|
E-----------------------------------------------------------------------------|

                                Really Fast
E-15>>>>>>>>---18^-18^-18^-20---18--15---------------------------------------|
B--------------------------------------18--16--18----14---16--16--14--16--18-|
G-------------------------------------------------15-------------------------|
D----------------------------------------------------------------------------|
A----------------------------------------------------------------------------|
E----------------------------------------------------------------------------|

                Slide down on last chord
E----------------------------------------------------------------------------|
B---8--8--8--8--8------------------------------------------------------------|
G---7--7--7--7--7------------------------------------------------------------|
D---6--6--6--6--6------------------------------------------------------------|
A---7--7--7--7--7------------------------------------------------------------|
E----------------------------------------------------------------------------|


Verse

Ending
Repeat 2X  ( 2nd Time Slighlty Slower)
E----------------------------------------------------------------------------|
B--16--15--16--15------------------------------------------------------------|
G------------------15---12/17---15~~~~~--------------------------------------|
D----------------------------------------------------------------------------|
A----------------------------------------------------------------------------|
E----------------------------------------------------------------------------|

By Heath Hamilton.
21/12/05
            
Submit corrections

↑ Back to top | Tablatures and chords for acoustic guitar and electric guitar, ukulele, drums are parodies/interpretations of the original songs. You may use it for private study, scholarship, research or language learning purposes only