Home » C » Carla Bruni »

Carla Bruni - Le Ciel Dans Une Chambre Tabs

Artists:  A B C D E F G H I J K L M N O P Q R S T U V W X Y Z # 

Le Ciel Dans Une Chambre Tabs

(ver. 1) Click to play this song!
Carla Bruni
 Rating:
4.3/5 (6 votes)
                STANDARD TUNING
CAPO ON 3

e|-2/3-5/7~---6\5-3h-5|7h-3----0p3h3-5~--10---------7h10h7-6/7\6-6\5-6-3-----|
B|--------------------------------------8--11/12~----------------------------|
G|---------------------------------------------------------------------------|
D|---------------------------------------------------------------------------|
A|---------------------------------------------------------------------------|
E|---------------------------------------------------------------------------|

e|-2/3-5/7~--12\10-7-12\10-7-12\10-7-12\10-7-10~---5/7~/10-5~/7-3------------|
B|---------------------------------------------------------------------------|
G|---------------------------------------------------------------------------|
D|---------------------------------------------------------------------------|
A|---------------------------------------------------------------------------|
E|---------------------------------------------------------------------------|

e|-(10\0)------12\10-7-12\10-7-12\10-7-12\10-7-10~- -9/10~-------------------|
B|---------5/8---------------------------------------------------------------|
G|---------------------------------------------------6/7~--------------------|
D|---------------------------------------------------------------------------|
A|---------------------------------------------------------------------------|
E|---------------------------------------------------------------------------|            
Submit corrections

↑ Back to top | Tablatures and chords for acoustic guitar and electric guitar, ukulele, drums are parodies/interpretations of the original songs. You may use it for private study, scholarship, research or language learning purposes only