» » »

Carcass - Black Star Tabs

Artists:  A B C D E F G H I J K L M N O P Q R S T U V W X Y Z # 

Black Star Tabs

(ver. 2) Click to play this song!
Carcass
 Rating:
4/5 (4 votes)
                Carcass - Black Star
Album - Swansong - Track 3

B |-------------------------------------------------------
F#|-------------------------------------------------------
D |-------------------------------------------------------
A |-------------------------------------------------------
E |-7-6-5-----------2----7-6-5-----------5------5-8---7---
B |-------7-6-0-3-5-0----------7-6-0-3-5-3------3-6---5---

B |--------------------------------------------
F#|--------------------------------------------
D |------------------5-------------------------
A |----------------4---4-----------------------
E |-2-----2-2----5-------2-----2-2-----2---2-2-
B |-0-----0-0------------0-----0-0-----0---0-0-

B |------------------------------
F#|------------------------------
D |------------------8-----------
A |----------------7---7---------
E |-5-----5-5----8-------5-----5-
B |-3-----3-3------------3-----3-

B |--------------------------------------------------------------
F#|--------------------------------------------------------------
D |--------------------------------------------------------------
A |---------9\7----------------------------9\7-------------------
E |-2---2-2-7\5--------------------2---2-2-7\5---0-2h5-0h1p0-----
B |-0---0-0-------5h6h7-3h4h5-3----0---0-0-------------------3---
                                        
B |---------------------------------
F#|---------------------------------
D |---------------------------------
A |---------7---9--------12-11------
E |---------5---7--------10--9------
B |-0---0-0----------0-0-------0-0--

B |--------------------------------
F#|--------------------------------
D |--------------------------------
A |----------5-----5-7-----7-9-----
E |5-7-----7-3-3-3-3-5-5-5-5-7-7-7-
B |3-5-5-5-5-----------------------


Then Guitar One Plays

B |---------------------------------
F#|---------------------------------
D |---------------------------------
A |---------------------------------
E |---------5---7--------10--9------
B |-0---0-0----------0-0-------0-0--

While Guitar 2 Plays

B |---------------------------------
F#|---------------------------------
D |---------------------------------
A |---------4---5--------9---7------
E |---------------------------------
B |-0---0-0----------0-0-------0-0--



Then The Little Guitar solo (Wah Filter):
B |-------------------------------------------------
F#|-------------------------17p15-17fbr-17p15-------
D |-11h12p11----14----14fb--------------------------
A |----------14-------------------------------------
E |-------------------------------------------------
B |-------------------------------------------------
                                  
B |-------------------------------17p15p14h15p14----
F#|----------------------------------------------15-
D |-11h12p11----14----14fb--------------------------
A |----------14-------------------------------------
E |-------------------------------------------------
B |-------------------------------------------------

                               
B |-------------------------------------------------
F#|-------------------------17/---------------------
D |-11h12p11----14----14fb--------------------------
A |----------14-------------------------------------
E |-------------------------------------------------
B |-------------------------------------------------


B |-------------------------------------------------
F#|-------------------------------------------------
D |-12/14-14-14-14/12-12-12-12/14-14-14-14/12-12-12-
A |-------------------------------------------------
E |-------------------------------------------------
B |-------------------------------------------------

B |-------------------------------------------------
F#|-15fb----------15fb------15p12----15fb-----------
D |-------------------------------14----------------
A |-------------------------------------------------
E |-------------------------------------------------
B |-------------------------------------------------

   
B |-12h15p12----12h17p12----12h15p12----12----------
F#|----------15----------15----------15-------------
D |-------------------------------------------------
A |-------------------------------------------------
E |-------------------------------------------------
B |-------------------------------------------------

  {---3---}
B |12h15p12----12-----------------------------------|
F#|------- 15----15-12------------------------------|
D |-------------------14-13-12----------------------|
A |----------------------------14-13-12-------------|
E |-------------------------------------14-13-12----|
B |----------------------------------------------15-|

                                          
B |-------------------------------------15fb---15p12
F#|-------------------------------12-15-------------
D |-------------------------12-14-------------------
A |----------------12-13-14-------------------------
E |-------12-13-14----------------------------------
B |-12-15-------------------------------------------

B |--------------
F#|-15fb---------
D |--------------
A |--------------
E |--------------
B |--------------


Then After the Solo Finish playing, Then Finish on An B and slide out.

B |--------------------------------------------------------------
F#|--------------------------------------------------------------
D |--------------------------------------------------------------
A |---------9\7----------------------------9\7-------------------
E |-2---2-2-7\5--------------------2---2-2-7\5---0-2h5-0h1p0-----
B |-0---0-0-------5h6h7-3h4h5-3----0---0-0-------------------3---


You can pretty much figure out the repeats, thats not hard.
But thats all ther riffs and the solo and they all sound lush to me.
Great Song

!!CarcasS!!BlacK StaR!!Pure0XygeN!!
            
Submit corrections

↑ Back to top | Tablatures and chords for acoustic guitar and electric guitar, ukulele, drums are parodies/interpretations of the original songs. You may use it for private study, scholarship, research or language learning purposes only