Home » C » Captain Beefheart And His Magic Band »

Captain Beefheart And His Magic Band - Sweet Sweet Bulbs Tabs

Artists:  A B C D E F G H I J K L M N O P Q R S T U V W X Y Z # 

Sweet Sweet Bulbs Tabs

(ver. 1) Click to play this song!
Captain Beefheart And His Magic Band
[Block 1] 0:00
e|--------/9---------------------|
B|--------/9---------------------|
G|-11p10p9---11/13---12p11-9-----| x4
D|--------------------------11---|
A|-------------------------------|
E|-----------------0-------------|
 
[Block 2] 0:14
e|--------------------------------|
B|--------------------------------|
G|---12-11-10-9--7-9--7-9--7-9--5-| x4
D|-12---------------------------5-|
A|------------------------------5-|
E|--------------------------------|
 
[Block 3] 0:27
e|--8-8-8------------------|
B|-------10-10-------------|
G|-9----------10-10-10---5-| x4
D|-----------------------5-|
A|-----------------------5-|
E|-------------------------|
 
[Block 1 Variation] 0:41
e|-/9--------------------|
B|-/9--------------------|
G|----11/13--12p11-9-----| x1
D|-------------------11--|
A|-----------------------|
E|---------0-------------|
 
[Block 1 Again] 0:45
e|--------/9---------------------|
B|--------/9---------------------|
G|-11p10p9---11/13---12p11-9-----| x4
D|--------------------------11---|
A|-------------------------------|
E|-----------------0-------------|
 
[Block 1 Variation 2] 0:59
e|--------/9---|
B|--------/9---|
G|-11p10p9-----| x1
D|-------------|
A|-------------|
E|-------------|
 
[Block 4] 1:01
e|-----------------------|
B|-----------------------|
G|------9-10-10-9--10-9--| x5
D|-10-12---------12------|
A|-----------------------|
E|-----------------------|
 
[Block 5] 1:13
e|------------|
B|------------|
G|-3---4------| x4
D|-4---5---6--|
A|------6--7--|
E|------------|
 
[Block 6] 1:20
e|----------------------------11---------------------------|
B|------------------------------12-10----------------------|
G|-11-11-10-9-9-9-8-8-8-7-7-7--------12-12-11-11-9-9-7-7-7-| x1
D|---------------------------------------------------------|
A|---------------------------------------------------------|
E|---------------------------------------------------------|
 
[Block 7] 1:28
e|-------------|
B|-------------|
G|-6---4---6---| x1
D|-6---4---6---|
A|-6---4---6---|
E|-------------|
 
[Block 8] 1:30
e|--------------------|
B|--------------------|
G|---------6----------| x2
D|-6-6---4----4---6-6-|
A|---------4----------|
E|-4-4---6----6---4-4-|
 
[Solo] 1:33
e|-------5---------------5----5--11--|
B|---8-6---6-8-9-----8-6--6-8--------|
G|-7---------------7-----------------|
D|-----------------------------------|
A|-----------------------------------|
E|-----------------------------------|
 
e|-----5------11------5-8-6-8---5-6-8--7-8--11--|
B|---8----6-5-------8---------8-----------5-----|
G|-7--------------7-----------------------------|
D|----------------------------------------------|
A|----------------------------------------------|
E|----------------------------------------------|
 
[Block 1 Variation Again] 1:54
e|-/9--------------------|
B|-/9--------------------|
G|----11/13--12p11-9-----| x1
D|------------------11---|
A|-----------------------|
E|---------0-------------|
 
[Block 1 Again] 1:58
e|--------/9---------------------|
B|--------/9---------------------|
G|-11p10p9---11/13---12p11-9-----| x4
D|--------------------------11---|
A|-------------------------------|
E|-----------------0-------------|
 
 
 
Antennae Jimmy Semen's Part
 
[Block 1] 0:00
e|------12-11-9---------------------|
B|-----9-------12p9-----------------|
G|----9------------11-9-12p11p9--9--| x1
D|--11-------------------------11---|
A|----------------------------------|
E|----------------------------------|
 
[Block 2] 0:06
e|-----------------------|
B|-----------------------|
G|-----------------------| x1
D|-----------------------|
A|---7-----7-----7-------|
E|-0----0-----0------0---|
 
[Block 1 Again] 0:09
e|------12-11-9---------------------|
B|-----9-------12p9-----------------|
G|----9------------11-9-12p11p9--9--| x1
D|--11-------------------------11---|
A|----------------------------------|
E|----------------------------------|
 
[Block 3] 0:14
e|-----------------------------------------------|
B|-----------------------------------------------|
G|-----------------------------------------------| x2
D|-----------------------------------------------|
A|---10-8---8h10p8-7--7------10-8---8h10p8-7--7--|
E|-10-----10--------10-10--10-----10--------10---|
 
[Block 4] 0:28
e|----------------------------------|
B|---12-10-10-10-----12-10-10-10----|
G|-9------------9--9------------12--| x2
D|----------------------------------|
A|----------------------------------|
E|----------------------------------|
 
[Block 5] 0:41
e|--9----------------------------|
B|---9---------------------------|
G|----11/13-11-9-11/13-11-9-11-9-| x1
D|-------------------------------|
A|-------------------------------|
E|-------------------------------|
 
[Block 2 Variation] 0:45
e|-----------------------|
B|-----------------------|
G|-----------------------| x1
D|-----------------------|
A|---7-----7-------------|
E|-0----0-----0----------|
 
[Block 5 Variation] 0:47
e|-9-9--------------------------------------------------|
B|--9-9-------------------------------------------------|
G|-----11/13\11-9-11/13\11-9-11/13\11-9-11/13-11-9-11-9-|
D|------------------------------------------------------|
A|------------------------------------------------------|
E|------------------------------------------------------|
 
[Block 2 Variation] 0:53
e|----------------|
B|----------------|
G|----------------| x1
D|----------------|
A|---7-----7------|
E|-0----0----0----|
 
[Block 5 Variation 2] 0:56
e|---------------------------------------------------|
B|---------------------------------------------10-9--|
G|-11/13\11-9-11/13\11-9-11/13\11-9-11p9-------9--9--|
D|--------------------------------------11-9h11------|
A|---------------------------------------------------|
E|---------------------------------------------------|
 
[Block 6] 1:00
e|----------------12------12---|
B|----------8--12-13-13--------|
G|-12-8-----10-------12---12---| x1
D|-10-10-9-----12-------14-----|
A|-----------------------------|
E|-----------------------------|
 
[Block 7] 1:06
e|------10--------12------|
B|--8-----12--------13----|
G|--10------12--------12--| x1
D|--------------14--------|
A|------------------------|
E|------------------------|
 
[Block 8] 1:12
e|--2-4--3--3--|
B|-------------|
G|-------------| x9
D|--4-5--5--5--|
A|-------------|
E|-------------|
 
[Block 9] 1:28
e|-----------------------------------------------|
B|-----------------------------------------------|
G|-6---6----3-5--3-5-5--5p3-5p3---3-5-5-5p3-5p3--|
D|---6-----6----6----------6---6-6-------------6-|
A|-4---4-----------------------------------------|
E|---4-------------------------------------------|
 
[Solo] 1:34
e|-----5------------------|
B|----7-7--------7-7------|
G|-7-7---7-5--7-7-5-7-----|
D|------------------------|
A|------------------------|
E|------------------------|
 
e|---8p5-------8p5---------8p5-----------8p5--------|
B|--7---8-7-------8-7-5-7-----8-7-5-5---5---8-7-5---|
G|-7-------7--7-----------7--------7-7-----------5--|
D|--------------------------------------------------|
A|--------------------------------------------------|
E|--------------------------------------------------|
 
[Block 1 Again] 1:44
e|------12-11-9---------------------|
B|-----9-------12p9-----------------|
G|----9------------11-9-12p11p9--9--| x1
D|--11-------------------------11---|
A|----------------------------------|
E|----------------------------------|
 
[Block 2 Again] 1:49
e|-----------------------|
B|-----------------------|
G|-----------------------| x1
D|-----------------------|
A|---7-----7-----7-------|
E|-0----0-----0------0---|
 
[Block 1 Again] 1:53
e|------12-11-9---------------------|
B|-----9-------12p9-----------------|
G|----9------------11-9-12p11p9--9--| x1
D|--11-------------------------11---|
A|----------------------------------|
E|----------------------------------|
 
[Block 5 Again] 1:58
e|--9----------------------------|
B|---9---------------------------|
G|----11/13-11-9-11/13-11-9-11-9-| x1
D|-------------------------------|
A|-------------------------------|
E|-------------------------------|
 
[Block 2 Again] 2:02
e|-----------------------|
B|-----------------------|
G|-----------------------| x1
D|-----------------------|
A|---7-----7-------------|
E|-0----0-----0----------|
 
[Block 5 Variation] 2:05
e|-9-9--------------------------------------------------|
B|--9-9-------------------------------------------------|
G|-----11/13\11-9-11/13\11-9-11/13\11-9-11/13-11-9-11-9-|
D|------------------------------------------------------|
A|------------------------------------------------------|
E|------------------------------------------------------|
 
[Block 2 Variation] 2:10
e|----------------|
B|----------------|
G|----------------| x1
D|----------------|
A|---7-----7------|
E|-0----0---------|
 
[Block 5 Variation 2] 2:12
e|-----------------------------------------------------12-|
B|---------------------------------------------10-9----13-|
G|-11/13\11-9-11/13\11-9-11/13\11-9-11p9-------9--9-------|
D|--------------------------------------11-9h11-----------|
A|--------------------------------------------------------|
E|--------------------------------------------------------|
            
Submit corrections

↑ Back to top | Tablatures and chords for acoustic guitar and electric guitar, ukulele, drums are parodies/interpretations of the original songs. You may use it for private study, scholarship, research or language learning purposes only