» » »

Captain Beefheart And His Magic Band - Grow Fins Tabs

Artists:  A B C D E F G H I J K L M N O P Q R S T U V W X Y Z # 

Grow Fins Tabs

(ver. 1) Click to play this song!
Captain Beefheart And His Magic Band
 Rating:
1.7/5 (30 votes)

 Grow Fins  lessons Tabs too difficult? Try these video lessons and learn fast
 
                Verse

     Am   (G)   Am
e----------------------------|
b----------------------------|
g----------------------------|
d----------------------------|
a-0-0--0-----2--0------------|
e---------3------------------|

Choras
Leave ya land lubbin women alone
e--------------------------|
b---5--3--1-3-3-1-3-1------|
g---------------------2----|
d--------------------------|
a--------------------------|
e--------------------------|

            
Submit corrections


        Grow Fins  lessons Hard to play? Try these video lessons and learn fast Grow Fins  lessons
        
↑ Back to top | Tablatures and chords for acoustic guitar and electric guitar, ukulele, drums are parodies/interpretations of the original songs. You may use it for private study, scholarship, research or language learning purposes only