Home » C » Capsize »

Capsize - Tear Me Apart Tabs

Artists:  A B C D E F G H I J K L M N O P Q R S T U V W X Y Z # 

Tear Me Apart Tabs

(ver. 1) Click to play this song!
Capsize
[Intro] Capsize - Tear me Apart

D|---------------------9----------------------------9---------------------|
A|----------10------------10------10--9------9----9-----------------------|
F|--9--11--------11-----------11---------11------------11-----------------|
C|------------------------------------------------------------------------|
G|------------------------------------------------------------------------|
C|------------------------------------------------------------------------|

D|-----------------------12----------------9----------9-------------------|
A|--12\10----9-h10p-9-h10--------10--9--10-----12-10------12-10-----9-----|
F|---------------------------------------------------------------9--------|
C|------------------------------------------------------------------------|
G|------------------------------------------------------------------------|
C|------------------------------------------------------------------------|            
Submit corrections

↑ Back to top | Tablatures and chords for acoustic guitar and electric guitar, ukulele, drums are parodies/interpretations of the original songs. You may use it for private study, scholarship, research or language learning purposes only