» » »

Cannibal Corpse - Hammer Smashed Face Bass

Artists:  A B C D E F G H I J K L M N O P Q R S T U V W X Y Z # 

Hammer Smashed Face Bass

(ver. 2) Click to play this song!
Cannibal Corpse
 Rating:
4/5 (4 votes)

 Hammer Smashed Face lessons Tabs too difficult? Try these video lessons and learn fast
 
                Band:  Cannibal Corpse


Riff 1

|----------------| |----------------------| |------------------|
|----------------| |----------------------| |---------55554444-|
|----------------| |----------------------| |------------------|
|-0--0--0---6\---| |-0-0-0-0-0-0-0-0-0-6\-| |-00112222---------|


Bass Solo

|-----------------|3x |-----------------|1x
|-----9-----------|   |-----------------|
|-7-----8---8-----|   |-7-----8---8-----|
|---6-----7---0-6-|   |---6-----7---6-0-|


Riff 2 similar to solo

|-----------------|3x |-----------------|1x
|-----9-----------|   |-----------------|
|-7-----8---8-----|   |-7-----8---8-----|
|---6-----7---0h6-|   |---6-----7---6p0-|


Riff 3

|-----------------|
|-----4-----------|
|-2h1---1-2-------|
|-----------1p0h1-|


Fill

|---------|
|---------|
|---------|
|--3-2-0--|


Riff 4

|-----------------------------|----------------------------|
|-----------------------------|----------------------------|
|-7h10p7-6h9p6-----5-----3----|-------------------1--------|
|--------------7-6---7-6------|-7h10p7-6h9p6--3-2---3-2-0--|


Riff 5

|------------------------|
|------------------------|
|--------------------1---|
|-7h10p7-6h9p6-2h3p2---0-|


Riff 6

|------------------| |--------------|
|---------55554444-| |--------------|
|------------------| |--------------|
|-00112222---------| |-0-0-2--0-0-2-|


Riff 7

|---------------------|
|---------------------|
|---------------------|
|--0-0-0-2h3p2-0-0-6\-|

The tablature is missing the last part of the song, just figure out how to put together 
you're good
            
Submit corrections


        Hammer Smashed Face lessons Hard to play? Try these video lessons and learn fast Hammer Smashed Face lessons
        
↑ Back to top | Tablatures and chords for acoustic guitar and electric guitar, ukulele, drums are parodies/interpretations of the original songs. You may use it for private study, scholarship, research or language learning purposes only