» » »

Candlebox - Simple Lessons Tabs

Artists:  A B C D E F G H I J K L M N O P Q R S T U V W X Y Z # 

Simple Lessons Tabs

(ver. 2) Click to play this song!
Candlebox
 Rating:
4/5 (4 votes)

 Simple Lessons lessons Tabs too difficult? Try these video lessons and learn fast
 
                This song Rules
                                                                       As
played at their concert in N.Y. City at Roseland on December 4 and 5  
Any comments or corrections 

\=slide into
()= not herd 
X =pick scr*pe

you need to use timing, and listen to the CD in order to get it right

INTRO
-------0-------------------0-------------
----------0--------------------0---------
- (3)----------3-------------------3------
--4---------------4------------------4---
--4-------------------2------------------
--2-------------------2------------------
 the second time you play the intro end it         ----
 chord to the right                                             ----
                          
                                                                         ----
                                                                         -4--
 
                                                                         -4--
                                                                         -2--

Main two riffs 

riff A    the 3rd and 4th chords of this riff are iffy  so if they 
              don't sound right make somthing up.
-2--2-2-2-\-5-5-5----------------------
-2--2-2-2-\-5-5-5--x--x-x--x-x-x------
-3--3-3-3-\-6-6-6--9--9-9--4-4-4-----
-4--4-4-4-\-7-7-7--9--9-9--4-4-4-----
-4--4-4-4-\-7-7-7--7--7-7--2-2-2-----
-2--2-2-2-\-5-5-5--9--9-9--4-4-4-----

riff B
-2--2-2-2--0-0-0----------------------
-2--2-2-2--0-0-0--2--2-2-2--4-4-4----
-3--3-3-3--1-1-1--2--2-2-2--4-4-4----
-4--4-4-4--2-2-2--2--2-2-2--4-4-4----
-4--4-4-4--2-2-2--0--0-0-0--2-2-2----
-2--2-2-2--0-0-0----------------------

O.K. this is how it goes together

1)play intro 

2)                                              simple          
-2--2-2-2-\-5-5-5----------------------
-2--2-2-2-\-5-5-5--x--x-x--x-x-x------
-3--3-3-3-\-6-6-6--9--9-9--4-4-4-----
-4--4-4-4-\-7-7-7--9--9-9--4-4-4-----
-4--4-4-4-\-7-7-7--7--7-7--2-2-2-----
-2--2-2-2-\-5-5-5--9--9-9--4-4-4-----
                                                   simple lessons
-2--2-2-2-\-5-5-5----------------------
-2--2-2-2-\-5-5-5--x--x-x--x-x-x------
-3--3-3-3-\-6-6-6--9--9-9--4-4-4-----
-4--4-4-4-\-7-7-7--9--9-9--4-4-4-----
-4--4-4-4-\-7-7-7--7--7-7--2-2-2-----
-2--2-2-2-\-5-5-5--9--9-9--4-4-4-----


riff B                                         simple
-2--2-2-2--0-0-0----------------------
-2--2-2-2--0-0-0--2--2-2-2--4-4-4----
-3--3-3-3--1-1-1--2--2-2-2--4-4-4----
-4--4-4-4--2-2-2--2--2-2-2--4-4-4----
-4--4-4-4--2-2-2--0--0-0-0--2-2-2----
-2--2-2-2--0-0-0----------------------

riff B                                                   simple
-2--2-2-2--0-0-0----------------------
-2--2-2-2--0-0-0--2--2-2-2--4-4-4----
-3--3-3-3--1-1-1--2--2-2-2--4-4-4----
-4--4-4-4--2-2-2--2--2-2-2--4-4-4----
-4--4-4-4--2-2-2--0--0-0-0--2-2-2----
-2--2-2-2--0-0-0----------------------

3) Verse
You have to slide from chord to chord i n this part
sounds to be where        you want to scream    always left without
     saying hellow
F#    \       A   \     E  \       B \          F#  \     A  \     E \
         B
-------------------0--------------------------0---------
---------------------0---4----------------------0---4--
---3--------6---------------4----3------6------------4-
------4-------7---------------------4-----7------------
------------------------2-------------------------------
-2--------5-----0--------------2------5-----0----7-----
play verse a whole bunch of times listen to CD to get the # of times

after the verse play riff A twice then play riff B 4 times
then play riff c

riff c
-----------------------------------------------
-6--6-6--6-6--6-6--6--6-6--6--6-6--6-6--6-6--
-6--6-6--6-6--6-6--6--6-6--6--6-6--6-6--6-6--
-6--6-6--6-6--6-6--6--6-6--6--6-6--6-6--6-6--
-4--4-4--4-4--4-4--4--4-4--4--4-4--4-4--4-4--
----------------------------------------------- 

next play riff D three times
riff D
-------------0-------------------0--------------
----------------0--------------------0----------
-(3)--(3)-(3)---------3---------------------3------
--4---4--4-------------4----------------------4---
--4---4--4-----------------2----------------------
--2---2--2-----------------2----------------------
then play riff A four times and end with chord below
                                                                         ----
                                                                         ----
                          
                                                                         ----
                                                                         -4--
 
                                                                         -4--
                                                                         -2--
Well thats about it have fun
I'm not typing the words if you need them or have any coments, or requests
for any candlebox songs (especially their first record I know most of the
            
Submit corrections


        Simple Lessons lessons Hard to play? Try these video lessons and learn fast Simple Lessons lessons
        
↑ Back to top | Tablatures and chords for acoustic guitar and electric guitar, ukulele, drums are parodies/interpretations of the original songs. You may use it for private study, scholarship, research or language learning purposes only